ISO-10303-21;
HEADER;
FILE_DESCRIPTION( ( 'STEP AP203' ), '1' );
FILE_NAME( 'p:/temp/worker_6/temp/exporttempdir_1924_88_harsk/format_0/098D040KG.stp', '2020-11-09T13:08:35', ( 'License CC BY-ND 4.0' ), ( 'CADENAS' ), ' ', 'PARTsolutions', ' ' );
FILE_SCHEMA( ( 'CONFIG_CONTROL_DESIGN' ) );
ENDSEC;
DATA;
#1 = DESIGN_CONTEXT( '', #27, 'design' );
#2 = APPLICATION_PROTOCOL_DEFINITION( 'international standard', 'config_control_design', 1994, #27 );
#3 = PRODUCT_CATEGORY_RELATIONSHIP( 'NONE', 'NONE', #28, #29 );
#4 = DATE_AND_TIME( #30, #31 );
#5 = DATE_TIME_ROLE( 'creation_date' );
#6 = DATE_TIME_ROLE( 'classification_date' );
#7 = PERSON_AND_ORGANIZATION_ROLE( 'creator' );
#8 = PERSON_AND_ORGANIZATION_ROLE( 'design_supplier' );
#9 = PERSON_AND_ORGANIZATION_ROLE( 'classification_officer' );
#10 = PERSON_AND_ORGANIZATION_ROLE( 'design_owner' );
#11 = APPROVAL_PERSON_ORGANIZATION( #32, #33, #34 );
#12 = APPROVAL_DATE_TIME( #4, #33 );
#13 = CC_DESIGN_APPROVAL( #33, ( #35, #36, #37 ) );
#14 = CC_DESIGN_DATE_AND_TIME_ASSIGNMENT( #4, #5, ( #37 ) );
#15 = CC_DESIGN_DATE_AND_TIME_ASSIGNMENT( #4, #6, ( #35 ) );
#16 = CC_DESIGN_PERSON_AND_ORGANIZATION_ASSIGNMENT( #32, #10, ( #38 ) );
#17 = CC_DESIGN_PERSON_AND_ORGANIZATION_ASSIGNMENT( #32, #7, ( #37 ) );
#18 = CC_DESIGN_PERSON_AND_ORGANIZATION_ASSIGNMENT( #32, #7, ( #36 ) );
#19 = CC_DESIGN_PERSON_AND_ORGANIZATION_ASSIGNMENT( #32, #8, ( #36 ) );
#20 = CC_DESIGN_SECURITY_CLASSIFICATION( #35, ( #36 ) );
#21 = CC_DESIGN_PERSON_AND_ORGANIZATION_ASSIGNMENT( #32, #9, ( #35 ) );
#22 = SHAPE_DEFINITION_REPRESENTATION( #39, #40 );
#23 =  ( GEOMETRIC_REPRESENTATION_CONTEXT( 3 )GLOBAL_UNCERTAINTY_ASSIGNED_CONTEXT( ( #43 ) )GLOBAL_UNIT_ASSIGNED_CONTEXT( ( #45, #46, #47 ) )REPRESENTATION_CONTEXT( 'NONE', 'WORKSPACE' ) );
#27 = APPLICATION_CONTEXT( 'configuration controlled 3D designs of mechanical parts and assemblies' );
#28 = PRODUCT_CATEGORY( 'part', 'NONE' );
#29 = PRODUCT_RELATED_PRODUCT_CATEGORY( 'detail', ' ', ( #38 ) );
#30 = CALENDAR_DATE( 2020, 9, 10 );
#31 = LOCAL_TIME( 14, 8, 35.0000000000000, #49 );
#32 = PERSON_AND_ORGANIZATION( #50, #51 );
#33 = APPROVAL( #52, 'SOLID MODEL' );
#34 = APPROVAL_ROLE( 'APPROVED' );
#35 = SECURITY_CLASSIFICATION( '', '', #53 );
#36 = PRODUCT_DEFINITION_FORMATION_WITH_SPECIFIED_SOURCE( ' ', 'NONE', #38, .NOT_KNOWN. );
#37 = PRODUCT_DEFINITION( 'NONE', 'NONE', #36, #1 );
#38 = PRODUCT( '_098D040KG', '_098D040KG', 'PART-_098D040KG-DESC', ( #54 ) );
#39 = PRODUCT_DEFINITION_SHAPE( 'NONE', 'NONE', #37 );
#40 = ADVANCED_BREP_SHAPE_REPRESENTATION( '_098D040KG', ( #55, #56 ), #23 );
#43 = UNCERTAINTY_MEASURE_WITH_UNIT( LENGTH_MEASURE( 0.00100000000000000 ), #45, '', '' );
#45 =  ( CONVERSION_BASED_UNIT( 'MILLIMETRE', #59 )LENGTH_UNIT(  )NAMED_UNIT( #62 ) );
#46 =  ( NAMED_UNIT( #64 )PLANE_ANGLE_UNIT(  )SI_UNIT( $, .RADIAN. ) );
#47 =  ( NAMED_UNIT( #64 )SI_UNIT( $, .STERADIAN. )SOLID_ANGLE_UNIT(  ) );
#49 = COORDINATED_UNIVERSAL_TIME_OFFSET( 1, 0, .AHEAD. );
#50 = PERSON( '', 'UNSPECIFIED', $, $, $, $ );
#51 = ORGANIZATION( 'UNSPECIFIED', 'UNSPECIFIED', 'UNSPECIFIED' );
#52 = APPROVAL_STATUS( 'approved' );
#53 = SECURITY_CLASSIFICATION_LEVEL( 'unclassified' );
#54 = MECHANICAL_CONTEXT( '', #27, 'mechanical' );
#55 = MANIFOLD_SOLID_BREP( '_098D040KG', #70 );
#56 = AXIS2_PLACEMENT_3D( '', #71, #72, #73 );
#59 = LENGTH_MEASURE_WITH_UNIT( LENGTH_MEASURE( 1.00000000000000 ), #74 );
#62 = DIMENSIONAL_EXPONENTS( 1.00000000000000, 0.000000000000000, 0.000000000000000, 0.000000000000000, 0.000000000000000, 0.000000000000000, 0.000000000000000 );
#64 = DIMENSIONAL_EXPONENTS( 0.000000000000000, 0.000000000000000, 0.000000000000000, 0.000000000000000, 0.000000000000000, 0.000000000000000, 0.000000000000000 );
#70 = CLOSED_SHELL( '', ( #75, #76, #77, #78, #79, #80, #81, #82, #83, #84, #85, #86, #87, #88, #89, #90 ) );
#71 = CARTESIAN_POINT( '', ( 0.000000000000000, 0.000000000000000, 0.000000000000000 ) );
#72 = DIRECTION( '', ( 0.000000000000000, 0.000000000000000, 1.00000000000000 ) );
#73 = DIRECTION( '', ( 1.00000000000000, 0.000000000000000, 0.000000000000000 ) );
#74 =  ( LENGTH_UNIT(  )NAMED_UNIT( #62 )SI_UNIT( .MILLI., .METRE. ) );
#75 = ADVANCED_FACE( '', ( #92, #93 ), #94, .F. );
#76 = ADVANCED_FACE( '', ( #95, #96 ), #97, .F. );
#77 = ADVANCED_FACE( '', ( #98, #99 ), #100, .T. );
#78 = ADVANCED_FACE( '', ( #101, #102 ), #103, .T. );
#79 = ADVANCED_FACE( '', ( #104, #105 ), #106, .T. );
#80 = ADVANCED_FACE( '', ( #107, #108 ), #109, .T. );
#81 = ADVANCED_FACE( '', ( #110, #111 ), #112, .T. );
#82 = ADVANCED_FACE( '', ( #113, #114 ), #115, .F. );
#83 = ADVANCED_FACE( '', ( #116, #117 ), #118, .F. );
#84 = ADVANCED_FACE( '', ( #119 ), #120, .F. );
#85 = ADVANCED_FACE( '', ( #121, #122 ), #123, .F. );
#86 = ADVANCED_FACE( '', ( #124, #125 ), #126, .F. );
#87 = ADVANCED_FACE( '', ( #127, #128 ), #129, .T. );
#88 = ADVANCED_FACE( '', ( #130, #131 ), #132, .F. );
#89 = ADVANCED_FACE( '', ( #133, #134 ), #135, .T. );
#90 = ADVANCED_FACE( '', ( #136, #137 ), #138, .F. );
#92 = FACE_OUTER_BOUND( '', #139, .T. );
#93 = FACE_OUTER_BOUND( '', #140, .T. );
#94 = CYLINDRICAL_SURFACE( '', #141, 16.0000000000000 );
#95 = FACE_BOUND( '', #142, .T. );
#96 = FACE_OUTER_BOUND( '', #143, .T. );
#97 = PLANE( '', #144 );
#98 = FACE_OUTER_BOUND( '', #145, .T. );
#99 = FACE_BOUND( '', #146, .T. );
#100 = CONICAL_SURFACE( '', #147, 18.8608713058000, 0.101092512400000 );
#101 = FACE_OUTER_BOUND( '', #148, .T. );
#102 = FACE_OUTER_BOUND( '', #149, .T. );
#103 = TOROIDAL_SURFACE( '', #150, 15.8761877991000, 3.00000000000000 );
#104 = FACE_OUTER_BOUND( '', #151, .T. );
#105 = FACE_OUTER_BOUND( '', #152, .T. );
#106 = ( BOUNDED_SURFACE(  )B_SPLINE_SURFACE( 3, 3, ( ( #155, #156, #157, #158, #159, #160, #161 ), ( #162, #163, #164, #165, #166, #167, #168 ), ( #169, #170, #171, #172, #173, #174, #175 ), ( #176, #177, #178, #179, #180, #181, #182 ) ), .UNSPECIFIED., .F., .T., .F. )B_SPLINE_SURFACE_WITH_KNOTS( ( 4, 4 ), ( 4, 3, 4 ), ( 0.000000000000000, 6.28318530717959 ), ( -0.640774009255776, -0.578926844322410, -0.517079679389046 ), .UNSPECIFIED. )GEOMETRIC_REPRESENTATION_ITEM(  )RATIONAL_B_SPLINE_SURFACE( ( ( 1.00000000000000, 0.333333333333333, 0.333333333333333, 1.00000000000000, 0.333333333333333, 0.333333333333333, 1.00000000000000 ), ( 0.998725382432929, 0.332908460810976, 0.332908460810976, 0.998725382432929, 0.332908460810976, 0.332908460810976, 0.998725382432929 ), ( 0.998725382432929, 0.332908460810976, 0.332908460810976, 0.998725382432929, 0.332908460810976, 0.332908460810976, 0.998725382432929 ), ( 1.00000000000000, 0.333333333333333, 0.333333333333333, 1.00000000000000, 0.333333333333333, 0.333333333333333, 1.00000000000000 ) ) )REPRESENTATION_ITEM( '' )SURFACE(  ) );
#107 = FACE_OUTER_BOUND( '', #188, .T. );
#108 = FACE_OUTER_BOUND( '', #189, .T. );
#109 = CYLINDRICAL_SURFACE( '', #190, 15.0000000000000 );
#110 = FACE_OUTER_BOUND( '', #191, .T. );
#111 = FACE_OUTER_BOUND( '', #192, .T. );
#112 = TOROIDAL_SURFACE( '', #193, 13.0000000000000, 2.00000000000000 );
#113 = FACE_BOUND( '', #194, .T. );
#114 = FACE_OUTER_BOUND( '', #195, .T. );
#115 = PLANE( '', #196 );
#116 = FACE_OUTER_BOUND( '', #197, .T. );
#117 = FACE_OUTER_BOUND( '', #198, .T. );
#118 = CYLINDRICAL_SURFACE( '', #199, 7.50000000000000 );
#119 = FACE_OUTER_BOUND( '', #200, .T. );
#120 = PLANE( '', #201 );
#121 = FACE_BOUND( '', #202, .T. );
#122 = FACE_OUTER_BOUND( '', #203, .T. );
#123 = SPHERICAL_SURFACE( '', #204, 7.60000000000000 );
#124 = FACE_BOUND( '', #205, .T. );
#125 = FACE_OUTER_BOUND( '', #206, .T. );
#126 = CONICAL_SURFACE( '', #207, 7.60000000000000, 0.244978663100000 );
#127 = FACE_OUTER_BOUND( '', #208, .T. );
#128 = FACE_OUTER_BOUND( '', #209, .T. );
#129 = TOROIDAL_SURFACE( '', #210, 7.50000000000000, 0.500000000000000 );
#130 = FACE_OUTER_BOUND( '', #211, .T. );
#131 = FACE_BOUND( '', #212, .T. );
#132 = PLANE( '', #213 );
#133 = FACE_OUTER_BOUND( '', #214, .T. );
#134 = FACE_OUTER_BOUND( '', #215, .T. );
#135 = TOROIDAL_SURFACE( '', #216, 9.99209560950000, 3.00000000000000 );
#136 = FACE_BOUND( '', #217, .T. );
#137 = FACE_OUTER_BOUND( '', #218, .T. );
#138 = PLANE( '', #219 );
#139 = EDGE_LOOP( '', ( #220 ) );
#140 = EDGE_LOOP( '', ( #221 ) );
#141 = AXIS2_PLACEMENT_3D( '', #222, #223, #224 );
#142 = EDGE_LOOP( '', ( #225 ) );
#143 = EDGE_LOOP( '', ( #226 ) );
#144 = AXIS2_PLACEMENT_3D( '', #227, #228, #229 );
#145 = EDGE_LOOP( '', ( #230 ) );
#146 = EDGE_LOOP( '', ( #231 ) );
#147 = AXIS2_PLACEMENT_3D( '', #232, #233, #234 );
#148 = EDGE_LOOP( '', ( #235 ) );
#149 = EDGE_LOOP( '', ( #236 ) );
#150 = AXIS2_PLACEMENT_3D( '', #237, #238, #239 );
#151 = EDGE_LOOP( '', ( #240 ) );
#152 = EDGE_LOOP( '', ( #241 ) );
#155 = CARTESIAN_POINT( '', ( 0.000000000000000, 7.48093412012782, -18.4839873783667 ) );
#156 = CARTESIAN_POINT( '', ( 36.9679747567335, 7.48093412012782, -18.4839873783667 ) );
#157 = CARTESIAN_POINT( '', ( 36.9679747567335, 7.48093412012782, 18.4839873783667 ) );
#158 = CARTESIAN_POINT( '', ( 0.000000000000000, 7.48093412012782, 18.4839873783667 ) );
#159 = CARTESIAN_POINT( '', ( -36.9679747567335, 7.48093412012782, 18.4839873783667 ) );
#160 = CARTESIAN_POINT( '', ( -36.9679747567335, 7.48093412012782, -18.4839873783667 ) );
#161 = CARTESIAN_POINT( '', ( 0.000000000000000, 7.48093412012782, -18.4839873783667 ) );
#162 = CARTESIAN_POINT( '', ( 0.000000000000000, 10.7086924622388, -16.6483915131065 ) );
#163 = CARTESIAN_POINT( '', ( 33.2967830262130, 10.7086924622388, -16.6483915131065 ) );
#164 = CARTESIAN_POINT( '', ( 33.2967830262130, 10.7086924622388, 16.6483915131065 ) );
#165 = CARTESIAN_POINT( '', ( 0.000000000000000, 10.7086924622388, 16.6483915131065 ) );
#166 = CARTESIAN_POINT( '', ( -33.2967830262130, 10.7086924622388, 16.6483915131065 ) );
#167 = CARTESIAN_POINT( '', ( -33.2967830262130, 10.7086924622388, -16.6483915131065 ) );
#168 = CARTESIAN_POINT( '', ( 0.000000000000000, 10.7086924622388, -16.6483915131065 ) );
#169 = CARTESIAN_POINT( '', ( 0.000000000000000, 13.8168255284906, -14.6168047101125 ) );
#170 = CARTESIAN_POINT( '', ( 29.2336094202250, 13.8168255284906, -14.6168047101125 ) );
#171 = CARTESIAN_POINT( '', ( 29.2336094202250, 13.8168255284906, 14.6168047101125 ) );
#172 = CARTESIAN_POINT( '', ( 0.000000000000000, 13.8168255284906, 14.6168047101125 ) );
#173 = CARTESIAN_POINT( '', ( -29.2336094202250, 13.8168255284906, 14.6168047101125 ) );
#174 = CARTESIAN_POINT( '', ( -29.2336094202250, 13.8168255284906, -14.6168047101125 ) );
#175 = CARTESIAN_POINT( '', ( 0.000000000000000, 13.8168255284906, -14.6168047101125 ) );
#176 = CARTESIAN_POINT( '', ( 0.000000000000000, 16.7934482758621, -12.3969954580690 ) );
#177 = CARTESIAN_POINT( '', ( 24.7939909161381, 16.7934482758621, -12.3969954580690 ) );
#178 = CARTESIAN_POINT( '', ( 24.7939909161381, 16.7934482758621, 12.3969954580690 ) );
#179 = CARTESIAN_POINT( '', ( 0.000000000000000, 16.7934482758621, 12.3969954580690 ) );
#180 = CARTESIAN_POINT( '', ( -24.7939909161381, 16.7934482758621, 12.3969954580690 ) );
#181 = CARTESIAN_POINT( '', ( -24.7939909161381, 16.7934482758621, -12.3969954580690 ) );
#182 = CARTESIAN_POINT( '', ( 0.000000000000000, 16.7934482758621, -12.3969954580690 ) );
#188 = EDGE_LOOP( '', ( #242 ) );
#189 = EDGE_LOOP( '', ( #243 ) );
#190 = AXIS2_PLACEMENT_3D( '', #244, #245, #246 );
#191 = EDGE_LOOP( '', ( #247 ) );
#192 = EDGE_LOOP( '', ( #248 ) );
#193 = AXIS2_PLACEMENT_3D( '', #249, #250, #251 );
#194 = EDGE_LOOP( '', ( #252 ) );
#195 = EDGE_LOOP( '', ( #253 ) );
#196 = AXIS2_PLACEMENT_3D( '', #254, #255, #256 );
#197 = EDGE_LOOP( '', ( #257 ) );
#198 = EDGE_LOOP( '', ( #258 ) );
#199 = AXIS2_PLACEMENT_3D( '', #259, #260, #261 );
#200 = EDGE_LOOP( '', ( #262 ) );
#201 = AXIS2_PLACEMENT_3D( '', #263, #264, #265 );
#202 = VERTEX_LOOP( '', #266 );
#203 = EDGE_LOOP( '', ( #267 ) );
#204 = AXIS2_PLACEMENT_3D( '', #268, #269, #270 );
#205 = EDGE_LOOP( '', ( #271 ) );
#206 = EDGE_LOOP( '', ( #272 ) );
#207 = AXIS2_PLACEMENT_3D( '', #273, #274, #275 );
#208 = EDGE_LOOP( '', ( #276 ) );
#209 = EDGE_LOOP( '', ( #277 ) );
#210 = AXIS2_PLACEMENT_3D( '', #278, #279, #280 );
#211 = EDGE_LOOP( '', ( #281 ) );
#212 = EDGE_LOOP( '', ( #282 ) );
#213 = AXIS2_PLACEMENT_3D( '', #283, #284, #285 );
#214 = EDGE_LOOP( '', ( #286 ) );
#215 = EDGE_LOOP( '', ( #287 ) );
#216 = AXIS2_PLACEMENT_3D( '', #288, #289, #290 );
#217 = EDGE_LOOP( '', ( #291 ) );
#218 = EDGE_LOOP( '', ( #292 ) );
#219 = AXIS2_PLACEMENT_3D( '', #293, #294, #295 );
#220 = ORIENTED_EDGE( '', *, *, #296, .F. );
#221 = ORIENTED_EDGE( '', *, *, #297, .T. );
#222 = CARTESIAN_POINT( '', ( 0.000000000000000, 0.000000000000000, 0.000000000000000 ) );
#223 = DIRECTION( '', ( -0.000000000000000, 1.00000000000000, 0.000000000000000 ) );
#224 = DIRECTION( '', ( 0.000000000000000, 0.000000000000000, -1.00000000000000 ) );
#225 = ORIENTED_EDGE( '', *, *, #297, .F. );
#226 = ORIENTED_EDGE( '', *, *, #298, .T. );
#227 = CARTESIAN_POINT( '', ( 19.5000000000000, 0.000000000000000, 0.000000000000000 ) );
#228 = DIRECTION( '', ( 0.000000000000000, 1.00000000000000, 0.000000000000000 ) );
#229 = DIRECTION( '', ( 0.000000000000000, -0.000000000000000, 1.00000000000000 ) );
#230 = ORIENTED_EDGE( '', *, *, #298, .F. );
#231 = ORIENTED_EDGE( '', *, *, #299, .T. );
#232 = CARTESIAN_POINT( '', ( 0.000000000000000, 6.30066421662857, 0.000000000000000 ) );
#233 = DIRECTION( '', ( -0.000000000000000, -1.00000000000000, -0.000000000000000 ) );
#234 = DIRECTION( '', ( 0.000000000000000, 0.000000000000000, -1.00000000000000 ) );
#235 = ORIENTED_EDGE( '', *, *, #300, .T. );
#236 = ORIENTED_EDGE( '', *, *, #299, .F. );
#237 = CARTESIAN_POINT( '', ( 0.000000000000000, 5.99790298279024, 0.000000000000000 ) );
#238 = DIRECTION( '', ( 0.000000000000000, -1.00000000000000, -0.000000000000000 ) );
#239 = DIRECTION( '', ( 0.000000000000000, 0.000000000000000, -1.00000000000000 ) );
#240 = ORIENTED_EDGE( '', *, *, #301, .T. );
#241 = ORIENTED_EDGE( '', *, *, #300, .F. );
#242 = ORIENTED_EDGE( '', *, *, #302, .F. );
#243 = ORIENTED_EDGE( '', *, *, #303, .T. );
#244 = CARTESIAN_POINT( '', ( 0.000000000000000, -2.00000000000000, 0.000000000000000 ) );
#245 = DIRECTION( '', ( -0.000000000000000, 1.00000000000000, 0.000000000000000 ) );
#246 = DIRECTION( '', ( 0.000000000000000, 0.000000000000000, -1.00000000000000 ) );
#247 = ORIENTED_EDGE( '', *, *, #302, .T. );
#248 = ORIENTED_EDGE( '', *, *, #304, .F. );
#249 = CARTESIAN_POINT( '', ( 0.000000000000000, -1.84314369322536E-15, 0.000000000000000 ) );
#250 = DIRECTION( '', ( 0.000000000000000, -1.00000000000000, -0.000000000000000 ) );
#251 = DIRECTION( '', ( 0.000000000000000, 0.000000000000000, -1.00000000000000 ) );
#252 = ORIENTED_EDGE( '', *, *, #305, .F. );
#253 = ORIENTED_EDGE( '', *, *, #304, .T. );
#254 = CARTESIAN_POINT( '', ( 13.0000000000000, -2.00000000000000, 0.000000000000000 ) );
#255 = DIRECTION( '', ( 0.000000000000000, 1.00000000000000, 0.000000000000000 ) );
#256 = DIRECTION( '', ( 0.000000000000000, -0.000000000000000, 1.00000000000000 ) );
#257 = ORIENTED_EDGE( '', *, *, #306, .F. );
#258 = ORIENTED_EDGE( '', *, *, #305, .T. );
#259 = CARTESIAN_POINT( '', ( 0.000000000000000, -2.00000000000000, 0.000000000000000 ) );
#260 = DIRECTION( '', ( -0.000000000000000, 1.00000000000000, 0.000000000000000 ) );
#261 = DIRECTION( '', ( 0.000000000000000, 0.000000000000000, -1.00000000000000 ) );
#262 = ORIENTED_EDGE( '', *, *, #306, .T. );
#263 = CARTESIAN_POINT( '', ( 7.50000000000000, -1.60000000000000, 0.000000000000000 ) );
#264 = DIRECTION( '', ( 0.000000000000000, 1.00000000000000, 0.000000000000000 ) );
#265 = DIRECTION( '', ( 0.000000000000000, -0.000000000000000, 1.00000000000000 ) );
#266 = VERTEX_POINT( '', #307 );
#267 = ORIENTED_EDGE( '', *, *, #308, .F. );
#268 = CARTESIAN_POINT( '', ( -1.30104260698261E-15, 15.1000000000000, 0.000000000000000 ) );
#269 = DIRECTION( '', ( 0.000000000000000, -1.00000000000000, 0.000000000000000 ) );
#270 = DIRECTION( '', ( -1.00000000000000, 0.000000000000000, 0.000000000000000 ) );
#271 = ORIENTED_EDGE( '', *, *, #309, .F. );
#272 = ORIENTED_EDGE( '', *, *, #308, .T. );
#273 = CARTESIAN_POINT( '', ( 0.000000000000000, 15.1000000000000, 0.000000000000000 ) );
#274 = DIRECTION( '', ( -0.000000000000000, -1.00000000000000, -0.000000000000000 ) );
#275 = DIRECTION( '', ( 0.000000000000000, 0.000000000000000, -1.00000000000000 ) );
#276 = ORIENTED_EDGE( '', *, *, #309, .T. );
#277 = ORIENTED_EDGE( '', *, *, #310, .F. );
#278 = CARTESIAN_POINT( '', ( 0.000000000000000, 17.5000000000000, 0.000000000000000 ) );
#279 = DIRECTION( '', ( 0.000000000000000, -1.00000000000000, -0.000000000000000 ) );
#280 = DIRECTION( '', ( 0.000000000000000, 0.000000000000000, -1.00000000000000 ) );
#281 = ORIENTED_EDGE( '', *, *, #311, .F. );
#282 = ORIENTED_EDGE( '', *, *, #310, .T. );
#283 = CARTESIAN_POINT( '', ( 7.50000000000000, 18.0000000000000, 0.000000000000000 ) );
#284 = DIRECTION( '', ( 0.000000000000000, -1.00000000000000, -0.000000000000000 ) );
#285 = DIRECTION( '', ( 0.000000000000000, 0.000000000000000, -1.00000000000000 ) );
#286 = ORIENTED_EDGE( '', *, *, #311, .T. );
#287 = ORIENTED_EDGE( '', *, *, #301, .F. );
#288 = CARTESIAN_POINT( '', ( 0.000000000000000, 15.0000000000000, 0.000000000000000 ) );
#289 = DIRECTION( '', ( 0.000000000000000, -1.00000000000000, -0.000000000000000 ) );
#290 = DIRECTION( '', ( 0.000000000000000, 0.000000000000000, -1.00000000000000 ) );
#291 = ORIENTED_EDGE( '', *, *, #303, .F. );
#292 = ORIENTED_EDGE( '', *, *, #296, .T. );
#293 = CARTESIAN_POINT( '', ( 16.0000000000000, 5.00000000000000, 0.000000000000000 ) );
#294 = DIRECTION( '', ( 0.000000000000000, 1.00000000000000, 0.000000000000000 ) );
#295 = DIRECTION( '', ( 0.000000000000000, -0.000000000000000, 1.00000000000000 ) );
#296 = EDGE_CURVE( '', #312, #312, #313, .T. );
#297 = EDGE_CURVE( '', #314, #314, #315, .T. );
#298 = EDGE_CURVE( '', #316, #316, #317, .T. );
#299 = EDGE_CURVE( '', #318, #318, #319, .T. );
#300 = EDGE_CURVE( '', #320, #320, #321, .T. );
#301 = EDGE_CURVE( '', #322, #322, #323, .T. );
#302 = EDGE_CURVE( '', #324, #324, #325, .T. );
#303 = EDGE_CURVE( '', #326, #326, #327, .T. );
#304 = EDGE_CURVE( '', #328, #328, #329, .T. );
#305 = EDGE_CURVE( '', #330, #330, #331, .T. );
#306 = EDGE_CURVE( '', #332, #332, #333, .T. );
#307 = CARTESIAN_POINT( '', ( -1.76640839065860E-15, 7.50000000000000, 0.000000000000000 ) );
#308 = EDGE_CURVE( '', #334, #334, #335, .T. );
#309 = EDGE_CURVE( '', #336, #336, #337, .T. );
#310 = EDGE_CURVE( '', #338, #338, #339, .T. );
#311 = EDGE_CURVE( '', #340, #340, #341, .T. );
#312 = VERTEX_POINT( '', #342 );
#313 = CIRCLE( '', #343, 16.0000000000000 );
#314 = VERTEX_POINT( '', #344 );
#315 = CIRCLE( '', #345, 16.0000000000000 );
#316 = VERTEX_POINT( '', #346 );
#317 = CIRCLE( '', #347, 19.5000000000000 );
#318 = VERTEX_POINT( '', #348 );
#319 = CIRCLE( '', #349, 18.8608713058000 );
#320 = VERTEX_POINT( '', #350 );
#321 = CIRCLE( '', #351, 18.4839873784000 );
#322 = VERTEX_POINT( '', #352 );
#323 = CIRCLE( '', #353, 12.3969954581000 );
#324 = VERTEX_POINT( '', #354 );
#325 = CIRCLE( '', #355, 15.0000000000000 );
#326 = VERTEX_POINT( '', #356 );
#327 = CIRCLE( '', #357, 15.0000000000000 );
#328 = VERTEX_POINT( '', #358 );
#329 = CIRCLE( '', #359, 13.0000000000000 );
#330 = VERTEX_POINT( '', #360 );
#331 = CIRCLE( '', #361, 7.50000000000000 );
#332 = VERTEX_POINT( '', #362 );
#333 = CIRCLE( '', #363, 7.50000000000000 );
#334 = VERTEX_POINT( '', #364 );
#335 = CIRCLE( '', #365, 7.60000000000000 );
#336 = VERTEX_POINT( '', #366 );
#337 = CIRCLE( '', #367, 7.00000000000000 );
#338 = VERTEX_POINT( '', #368 );
#339 = CIRCLE( '', #369, 7.50000000000000 );
#340 = VERTEX_POINT( '', #370 );
#341 = CIRCLE( '', #371, 9.99209560950000 );
#342 = CARTESIAN_POINT( '', ( 0.000000000000000, 5.00000000000000, -16.0000000000000 ) );
#343 = AXIS2_PLACEMENT_3D( '', #372, #373, #374 );
#344 = CARTESIAN_POINT( '', ( 0.000000000000000, 0.000000000000000, -16.0000000000000 ) );
#345 = AXIS2_PLACEMENT_3D( '', #375, #376, #377 );
#346 = CARTESIAN_POINT( '', ( 0.000000000000000, 0.000000000000000, -19.5000000000000 ) );
#347 = AXIS2_PLACEMENT_3D( '', #378, #379, #380 );
#348 = CARTESIAN_POINT( '', ( 0.000000000000000, 6.30066421662857, -18.8608713058075 ) );
#349 = AXIS2_PLACEMENT_3D( '', #381, #382, #383 );
#350 = CARTESIAN_POINT( '', ( 0.000000000000000, 7.48093412012783, -18.4839873783667 ) );
#351 = AXIS2_PLACEMENT_3D( '', #384, #385, #386 );
#352 = CARTESIAN_POINT( '', ( 0.000000000000000, 16.7934482758621, -12.3969954580690 ) );
#353 = AXIS2_PLACEMENT_3D( '', #387, #388, #389 );
#354 = CARTESIAN_POINT( '', ( 0.000000000000000, 0.000000000000000, -15.0000000000000 ) );
#355 = AXIS2_PLACEMENT_3D( '', #390, #391, #392 );
#356 = CARTESIAN_POINT( '', ( 0.000000000000000, 5.00000000000000, -15.0000000000000 ) );
#357 = AXIS2_PLACEMENT_3D( '', #393, #394, #395 );
#358 = CARTESIAN_POINT( '', ( 0.000000000000000, -2.00000000000000, -13.0000000000000 ) );
#359 = AXIS2_PLACEMENT_3D( '', #396, #397, #398 );
#360 = CARTESIAN_POINT( '', ( 0.000000000000000, -2.00000000000000, -7.50000000000000 ) );
#361 = AXIS2_PLACEMENT_3D( '', #399, #400, #401 );
#362 = CARTESIAN_POINT( '', ( 0.000000000000000, -1.60000000000000, -7.50000000000000 ) );
#363 = AXIS2_PLACEMENT_3D( '', #402, #403, #404 );
#364 = CARTESIAN_POINT( '', ( 0.000000000000000, 15.1000000000000, -7.60000000000000 ) );
#365 = AXIS2_PLACEMENT_3D( '', #405, #406, #407 );
#366 = CARTESIAN_POINT( '', ( 0.000000000000000, 17.5000000000000, -7.00000000000000 ) );
#367 = AXIS2_PLACEMENT_3D( '', #408, #409, #410 );
#368 = CARTESIAN_POINT( '', ( 0.000000000000000, 18.0000000000000, -7.50000000000000 ) );
#369 = AXIS2_PLACEMENT_3D( '', #411, #412, #413 );
#370 = CARTESIAN_POINT( '', ( 0.000000000000000, 18.0000000000000, -9.99209560946675 ) );
#371 = AXIS2_PLACEMENT_3D( '', #414, #415, #416 );
#372 = CARTESIAN_POINT( '', ( 0.000000000000000, 5.00000000000000, 0.000000000000000 ) );
#373 = DIRECTION( '', ( 0.000000000000000, -1.00000000000000, -0.000000000000000 ) );
#374 = DIRECTION( '', ( 0.000000000000000, 0.000000000000000, -1.00000000000000 ) );
#375 = CARTESIAN_POINT( '', ( 0.000000000000000, 0.000000000000000, 0.000000000000000 ) );
#376 = DIRECTION( '', ( 0.000000000000000, -1.00000000000000, -0.000000000000000 ) );
#377 = DIRECTION( '', ( 0.000000000000000, 0.000000000000000, -1.00000000000000 ) );
#378 = CARTESIAN_POINT( '', ( 0.000000000000000, 0.000000000000000, 0.000000000000000 ) );
#379 = DIRECTION( '', ( 0.000000000000000, -1.00000000000000, -0.000000000000000 ) );
#380 = DIRECTION( '', ( 0.000000000000000, 0.000000000000000, -1.00000000000000 ) );
#381 = CARTESIAN_POINT( '', ( 0.000000000000000, 6.30066421662857, 0.000000000000000 ) );
#382 = DIRECTION( '', ( 0.000000000000000, -1.00000000000000, -0.000000000000000 ) );
#383 = DIRECTION( '', ( 0.000000000000000, 0.000000000000000, -1.00000000000000 ) );
#384 = CARTESIAN_POINT( '', ( 0.000000000000000, 7.48093412012783, 0.000000000000000 ) );
#385 = DIRECTION( '', ( 0.000000000000000, -1.00000000000000, -0.000000000000000 ) );
#386 = DIRECTION( '', ( 0.000000000000000, 0.000000000000000, -1.00000000000000 ) );
#387 = CARTESIAN_POINT( '', ( 0.000000000000000, 16.7934482758621, 0.000000000000000 ) );
#388 = DIRECTION( '', ( 0.000000000000000, -1.00000000000000, -0.000000000000000 ) );
#389 = DIRECTION( '', ( 0.000000000000000, 0.000000000000000, -1.00000000000000 ) );
#390 = CARTESIAN_POINT( '', ( 0.000000000000000, 0.000000000000000, 0.000000000000000 ) );
#391 = DIRECTION( '', ( 0.000000000000000, -1.00000000000000, -0.000000000000000 ) );
#392 = DIRECTION( '', ( 0.000000000000000, 0.000000000000000, -1.00000000000000 ) );
#393 = CARTESIAN_POINT( '', ( 0.000000000000000, 5.00000000000000, 0.000000000000000 ) );
#394 = DIRECTION( '', ( 0.000000000000000, -1.00000000000000, -0.000000000000000 ) );
#395 = DIRECTION( '', ( 0.000000000000000, 0.000000000000000, -1.00000000000000 ) );
#396 = CARTESIAN_POINT( '', ( 0.000000000000000, -2.00000000000000, 0.000000000000000 ) );
#397 = DIRECTION( '', ( 0.000000000000000, -1.00000000000000, -0.000000000000000 ) );
#398 = DIRECTION( '', ( 0.000000000000000, 0.000000000000000, -1.00000000000000 ) );
#399 = CARTESIAN_POINT( '', ( 0.000000000000000, -2.00000000000000, 0.000000000000000 ) );
#400 = DIRECTION( '', ( 0.000000000000000, -1.00000000000000, -0.000000000000000 ) );
#401 = DIRECTION( '', ( 0.000000000000000, 0.000000000000000, -1.00000000000000 ) );
#402 = CARTESIAN_POINT( '', ( 0.000000000000000, -1.60000000000000, 0.000000000000000 ) );
#403 = DIRECTION( '', ( 0.000000000000000, -1.00000000000000, -0.000000000000000 ) );
#404 = DIRECTION( '', ( 0.000000000000000, 0.000000000000000, -1.00000000000000 ) );
#405 = CARTESIAN_POINT( '', ( 0.000000000000000, 15.1000000000000, 0.000000000000000 ) );
#406 = DIRECTION( '', ( 0.000000000000000, -1.00000000000000, -0.000000000000000 ) );
#407 = DIRECTION( '', ( 0.000000000000000, 0.000000000000000, -1.00000000000000 ) );
#408 = CARTESIAN_POINT( '', ( 0.000000000000000, 17.5000000000000, 0.000000000000000 ) );
#409 = DIRECTION( '', ( 0.000000000000000, -1.00000000000000, -0.000000000000000 ) );
#410 = DIRECTION( '', ( 0.000000000000000, 0.000000000000000, -1.00000000000000 ) );
#411 = CARTESIAN_POINT( '', ( 0.000000000000000, 18.0000000000000, 0.000000000000000 ) );
#412 = DIRECTION( '', ( 0.000000000000000, -1.00000000000000, -0.000000000000000 ) );
#413 = DIRECTION( '', ( 0.000000000000000, 0.000000000000000, -1.00000000000000 ) );
#414 = CARTESIAN_POINT( '', ( 0.000000000000000, 18.0000000000000, 0.000000000000000 ) );
#415 = DIRECTION( '', ( 0.000000000000000, -1.00000000000000, -0.000000000000000 ) );
#416 = DIRECTION( '', ( 0.000000000000000, 0.000000000000000, -1.00000000000000 ) );
ENDSEC;
END-ISO-10303-21;
