ISO-10303-21;
HEADER;
FILE_DESCRIPTION(('STEP AP203'),'1');
FILE_NAME('fath_092042.stp','2021-11-24T07:56:52',('TraceParts'),('TraceParts S.A.'),'Spatial InterOp 3D',' ',' ');
FILE_SCHEMA(('CONFIG_CONTROL_DESIGN'));
ENDSEC;
DATA;
#1=DESIGN_CONTEXT('',#27,'design');
#2=APPLICATION_PROTOCOL_DEFINITION('INTERNATIONAL STANDARD','config_control_design',1994,#27);
#3=PRODUCT_CATEGORY_RELATIONSHIP('NONE','NONE',#28,#29);
#4=DATE_AND_TIME(#30,#31);
#5=DATE_TIME_ROLE('creation_date');
#6=DATE_TIME_ROLE('classification_date');
#7=PERSON_AND_ORGANIZATION_ROLE('creator');
#8=PERSON_AND_ORGANIZATION_ROLE('design_supplier');
#9=PERSON_AND_ORGANIZATION_ROLE('classification_officer');
#10=PERSON_AND_ORGANIZATION_ROLE('design_owner');
#11=APPROVAL_PERSON_ORGANIZATION(#32,#33,#34);
#12=APPROVAL_DATE_TIME(#4,#33);
#13=CC_DESIGN_APPROVAL(#33,(#35,#36,#37));
#14=CC_DESIGN_DATE_AND_TIME_ASSIGNMENT(#4,#5,(#37));
#15=CC_DESIGN_DATE_AND_TIME_ASSIGNMENT(#4,#6,(#35));
#16=CC_DESIGN_PERSON_AND_ORGANIZATION_ASSIGNMENT(#32,#10,(#38));
#17=CC_DESIGN_PERSON_AND_ORGANIZATION_ASSIGNMENT(#32,#7,(#37));
#18=CC_DESIGN_PERSON_AND_ORGANIZATION_ASSIGNMENT(#32,#7,(#36));
#19=CC_DESIGN_PERSON_AND_ORGANIZATION_ASSIGNMENT(#32,#8,(#36));
#20=CC_DESIGN_SECURITY_CLASSIFICATION(#35,(#36));
#21=CC_DESIGN_PERSON_AND_ORGANIZATION_ASSIGNMENT(#32,#9,(#35));
#22=SHAPE_DEFINITION_REPRESENTATION(#39,#40);
#23= (GEOMETRIC_REPRESENTATION_CONTEXT(3)GLOBAL_UNCERTAINTY_ASSIGNED_CONTEXT((#43))GLOBAL_UNIT_ASSIGNED_CONTEXT((#45,#46,#47))REPRESENTATION_CONTEXT('NONE','WORKSPACE'));
#27=APPLICATION_CONTEXT('CONFIGURATION CONTROLLED 3D DESIGNS OF MECHANICAL PARTS AND ASSEMBLIES');
#28=PRODUCT_CATEGORY('part','NONE');
#29=PRODUCT_RELATED_PRODUCT_CATEGORY('detail',' ',(#38));
#30=CALENDAR_DATE(2021,24,10);
#31=LOCAL_TIME(8,56,52.0,#49);
#32=PERSON_AND_ORGANIZATION(#50,#51);
#33=APPROVAL(#52,'SOLID MODEL');
#34=APPROVAL_ROLE('APPROVED');
#35=SECURITY_CLASSIFICATION('','',#53);
#36=PRODUCT_DEFINITION_FORMATION_WITH_SPECIFIED_SOURCE(' ','NONE',#38,.NOT_KNOWN.);
#37=PRODUCT_DEFINITION('','NONE',#36,#1);
#38=PRODUCT('1','','PART--DESC',(#54));
#39=PRODUCT_DEFINITION_SHAPE('NONE','NONE',#37);
#40=ADVANCED_BREP_SHAPE_REPRESENTATION('1',(#55,#56),#23);
#43=UNCERTAINTY_MEASURE_WITH_UNIT(LENGTH_MEASURE(1.0E-06),#45,'','');
#45= (CONVERSION_BASED_UNIT('MILLIMETRE',#59)LENGTH_UNIT()NAMED_UNIT(#62));
#46= (NAMED_UNIT(#64)PLANE_ANGLE_UNIT()SI_UNIT($,.RADIAN.));
#47= (NAMED_UNIT(#64)SOLID_ANGLE_UNIT()SI_UNIT($,.STERADIAN.));
#49=COORDINATED_UNIVERSAL_TIME_OFFSET(1,0,.AHEAD.);
#50=PERSON('','UNSPECIFIED',$,$,$,$);
#51=ORGANIZATION('UNSPECIFIED','UNSPECIFIED','UNSPECIFIED');
#52=APPROVAL_STATUS('approved');
#53=SECURITY_CLASSIFICATION_LEVEL('unclassified');
#54=MECHANICAL_CONTEXT('',#27,'mechanical');
#55=MANIFOLD_SOLID_BREP('1',#70);
#56=AXIS2_PLACEMENT_3D('',#71,#72,#73);
#59=LENGTH_MEASURE_WITH_UNIT(LENGTH_MEASURE(1.0),#74);
#62=DIMENSIONAL_EXPONENTS(1.0,0.0,0.0,0.0,0.0,0.0,0.0);
#64=DIMENSIONAL_EXPONENTS(0.0,0.0,0.0,0.0,0.0,0.0,0.0);
#70=CLOSED_SHELL('',(#75,#76,#77,#78,#79,#80,#81,#82,#83,#84,#85,#86,#87,#88,#89,#90,#91,#92,#93,#94));
#71=CARTESIAN_POINT('',(0.0,0.0,0.0));
#72=DIRECTION('',(0.0,0.0,1.0));
#73=DIRECTION('',(1.0,0.0,0.0));
#74= (NAMED_UNIT(#62)LENGTH_UNIT()SI_UNIT(.MILLI.,.METRE.));
#75=ADVANCED_FACE('',(#96),#97,.T.);
#76=ADVANCED_FACE('',(#98),#99,.F.);
#77=ADVANCED_FACE('',(#100),#101,.T.);
#78=ADVANCED_FACE('',(#102),#103,.F.);
#79=ADVANCED_FACE('',(#104),#105,.F.);
#80=ADVANCED_FACE('',(#106),#107,.F.);
#81=ADVANCED_FACE('',(#108),#109,.T.);
#82=ADVANCED_FACE('',(#110),#111,.F.);
#83=ADVANCED_FACE('',(#112),#113,.F.);
#84=ADVANCED_FACE('',(#114),#115,.F.);
#85=ADVANCED_FACE('',(#116),#117,.T.);
#86=ADVANCED_FACE('',(#118),#119,.F.);
#87=ADVANCED_FACE('',(#120),#121,.F.);
#88=ADVANCED_FACE('',(#122),#123,.F.);
#89=ADVANCED_FACE('',(#124),#125,.T.);
#90=ADVANCED_FACE('',(#126),#127,.F.);
#91=ADVANCED_FACE('',(#128),#129,.T.);
#92=ADVANCED_FACE('',(#130),#131,.F.);
#93=ADVANCED_FACE('',(#132),#133,.T.);
#94=ADVANCED_FACE('',(#134),#135,.F.);
#96=FACE_OUTER_BOUND('',#136,.T.);
#97=CYLINDRICAL_SURFACE('',#137,0.2);
#98=FACE_OUTER_BOUND('',#138,.T.);
#99=PLANE('',#139);
#100=FACE_OUTER_BOUND('',#140,.T.);
#101=CYLINDRICAL_SURFACE('',#141,0.2);
#102=FACE_OUTER_BOUND('',#142,.T.);
#103=PLANE('',#143);
#104=FACE_OUTER_BOUND('',#144,.T.);
#105=PLANE('',#145);
#106=FACE_OUTER_BOUND('',#146,.T.);
#107=PLANE('',#147);
#108=FACE_OUTER_BOUND('',#148,.T.);
#109=CYLINDRICAL_SURFACE('',#149,2.5);
#110=FACE_OUTER_BOUND('',#150,.T.);
#111=PLANE('',#151);
#112=FACE_OUTER_BOUND('',#152,.T.);
#113=PLANE('',#153);
#114=FACE_OUTER_BOUND('',#154,.T.);
#115=PLANE('',#155);
#116=FACE_OUTER_BOUND('',#156,.T.);
#117=CYLINDRICAL_SURFACE('',#157,2.5);
#118=FACE_OUTER_BOUND('',#158,.T.);
#119=PLANE('',#159);
#120=FACE_OUTER_BOUND('',#160,.T.);
#121=PLANE('',#161);
#122=FACE_OUTER_BOUND('',#162,.T.);
#123=PLANE('',#163);
#124=FACE_OUTER_BOUND('',#164,.T.);
#125=CYLINDRICAL_SURFACE('',#165,0.2);
#126=FACE_OUTER_BOUND('',#166,.T.);
#127=PLANE('',#167);
#128=FACE_OUTER_BOUND('',#168,.T.);
#129=CYLINDRICAL_SURFACE('',#169,0.2);
#130=FACE_OUTER_BOUND('',#170,.T.);
#131=PLANE('',#171);
#132=FACE_OUTER_BOUND('',#172,.T.);
#133=PLANE('',#173);
#134=FACE_OUTER_BOUND('',#174,.T.);
#135=PLANE('',#175);
#136=EDGE_LOOP('',(#176,#177,#178,#179));
#137=AXIS2_PLACEMENT_3D('',#180,#181,#182);
#138=EDGE_LOOP('',(#183,#184,#185,#186));
#139=AXIS2_PLACEMENT_3D('',#187,#188,#189);
#140=EDGE_LOOP('',(#190,#191,#192,#193));
#141=AXIS2_PLACEMENT_3D('',#194,#195,#196);
#142=EDGE_LOOP('',(#197,#198,#199,#200));
#143=AXIS2_PLACEMENT_3D('',#201,#202,#203);
#144=EDGE_LOOP('',(#204,#205,#206,#207));
#145=AXIS2_PLACEMENT_3D('',#208,#209,#210);
#146=EDGE_LOOP('',(#211,#212,#213,#214));
#147=AXIS2_PLACEMENT_3D('',#215,#216,#217);
#148=EDGE_LOOP('',(#218,#219,#220,#221));
#149=AXIS2_PLACEMENT_3D('',#222,#223,#224);
#150=EDGE_LOOP('',(#225,#226,#227,#228));
#151=AXIS2_PLACEMENT_3D('',#229,#230,#231);
#152=EDGE_LOOP('',(#232,#233,#234,#235));
#153=AXIS2_PLACEMENT_3D('',#236,#237,#238);
#154=EDGE_LOOP('',(#239,#240,#241,#242));
#155=AXIS2_PLACEMENT_3D('',#243,#244,#245);
#156=EDGE_LOOP('',(#246,#247,#248,#249));
#157=AXIS2_PLACEMENT_3D('',#250,#251,#252);
#158=EDGE_LOOP('',(#253,#254,#255,#256));
#159=AXIS2_PLACEMENT_3D('',#257,#258,#259);
#160=EDGE_LOOP('',(#260,#261,#262,#263));
#161=AXIS2_PLACEMENT_3D('',#264,#265,#266);
#162=EDGE_LOOP('',(#267,#268,#269,#270));
#163=AXIS2_PLACEMENT_3D('',#271,#272,#273);
#164=EDGE_LOOP('',(#274,#275,#276,#277));
#165=AXIS2_PLACEMENT_3D('',#278,#279,#280);
#166=EDGE_LOOP('',(#281,#282,#283,#284));
#167=AXIS2_PLACEMENT_3D('',#285,#286,#287);
#168=EDGE_LOOP('',(#288,#289,#290,#291));
#169=AXIS2_PLACEMENT_3D('',#292,#293,#294);
#170=EDGE_LOOP('',(#295,#296,#297,#298));
#171=AXIS2_PLACEMENT_3D('',#299,#300,#301);
#172=EDGE_LOOP('',(#302,#303,#304,#305,#306,#307,#308,#309,#310,#311,#312,#313,#314,#315,#316,#317,#318,#319));
#173=AXIS2_PLACEMENT_3D('',#320,#321,#322);
#174=EDGE_LOOP('',(#323,#324,#325,#326,#327,#328,#329,#330,#331,#332,#333,#334,#335,#336,#337,#338,#339,#340));
#175=AXIS2_PLACEMENT_3D('',#341,#342,#343);
#176=ORIENTED_EDGE('',*,*,#344,.T.);
#177=ORIENTED_EDGE('',*,*,#345,.F.);
#178=ORIENTED_EDGE('',*,*,#346,.F.);
#179=ORIENTED_EDGE('',*,*,#347,.T.);
#180=CARTESIAN_POINT('',(-5.6,-0.200000000000001,1000.0));
#181=DIRECTION('',(0.0,0.0,1.0));
#182=DIRECTION('',(-1.0,0.0,0.0));
#183=ORIENTED_EDGE('',*,*,#348,.T.);
#184=ORIENTED_EDGE('',*,*,#349,.F.);
#185=ORIENTED_EDGE('',*,*,#350,.F.);
#186=ORIENTED_EDGE('',*,*,#345,.T.);
#187=CARTESIAN_POINT('',(-5.8,-0.200000000000002,1000.0));
#188=DIRECTION('',(1.0,-2.89120579329468E-15,0.0));
#189=DIRECTION('',(-2.89120579329468E-15,-1.0,0.0));
#190=ORIENTED_EDGE('',*,*,#351,.T.);
#191=ORIENTED_EDGE('',*,*,#352,.F.);
#192=ORIENTED_EDGE('',*,*,#353,.F.);
#193=ORIENTED_EDGE('',*,*,#349,.T.);
#194=CARTESIAN_POINT('',(-5.6,-1.4,1000.0));
#195=DIRECTION('',(0.0,0.0,1.0));
#196=DIRECTION('',(-1.0,0.0,0.0));
#197=ORIENTED_EDGE('',*,*,#354,.T.);
#198=ORIENTED_EDGE('',*,*,#355,.F.);
#199=ORIENTED_EDGE('',*,*,#356,.F.);
#200=ORIENTED_EDGE('',*,*,#352,.T.);
#201=CARTESIAN_POINT('',(-5.6,-1.6,1000.0));
#202=DIRECTION('',(-0.0,1.0,0.0));
#203=DIRECTION('',(1.0,0.0,0.0));
#204=ORIENTED_EDGE('',*,*,#357,.T.);
#205=ORIENTED_EDGE('',*,*,#358,.F.);
#206=ORIENTED_EDGE('',*,*,#359,.F.);
#207=ORIENTED_EDGE('',*,*,#355,.T.);
#208=CARTESIAN_POINT('',(-5.1,-1.6,1000.0));
#209=DIRECTION('',(0.999425947139835,-0.0338788456657568,0.0));
#210=DIRECTION('',(0.0,0.0,-1.0));
#211=ORIENTED_EDGE('',*,*,#360,.T.);
#212=ORIENTED_EDGE('',*,*,#361,.F.);
#213=ORIENTED_EDGE('',*,*,#362,.F.);
#214=ORIENTED_EDGE('',*,*,#358,.T.);
#215=CARTESIAN_POINT('',(-5.25254237288135,-6.1,1000.0));
#216=DIRECTION('',(0.682744903007333,-0.730656826025397,0.0));
#217=DIRECTION('',(0.0,0.0,-1.0));
#218=ORIENTED_EDGE('',*,*,#363,.T.);
#219=ORIENTED_EDGE('',*,*,#364,.F.);
#220=ORIENTED_EDGE('',*,*,#365,.F.);
#221=ORIENTED_EDGE('',*,*,#361,.T.);
#222=CARTESIAN_POINT('',(-3.25649573809356,-5.22819480250108,1000.0));
#223=DIRECTION('',(0.0,0.0,1.0));
#224=DIRECTION('',(-1.0,0.0,0.0));
#225=ORIENTED_EDGE('',*,*,#366,.T.);
#226=ORIENTED_EDGE('',*,*,#367,.F.);
#227=ORIENTED_EDGE('',*,*,#368,.F.);
#228=ORIENTED_EDGE('',*,*,#364,.T.);
#229=CARTESIAN_POINT('',(-4.1,-1.6,1000.0));
#230=DIRECTION('',(-0.999425947139835,0.0338788456657571,0.0));
#231=DIRECTION('',(0.0,0.0,1.0));
#232=ORIENTED_EDGE('',*,*,#369,.T.);
#233=ORIENTED_EDGE('',*,*,#370,.F.);
#234=ORIENTED_EDGE('',*,*,#371,.F.);
#235=ORIENTED_EDGE('',*,*,#367,.T.);
#236=CARTESIAN_POINT('',(-4.1,-1.6,1000.0));
#237=DIRECTION('',(-1.32219777132379E-16,1.0,0.0));
#238=DIRECTION('',(1.0,1.32219777132379E-16,-0.0));
#239=ORIENTED_EDGE('',*,*,#372,.T.);
#240=ORIENTED_EDGE('',*,*,#373,.F.);
#241=ORIENTED_EDGE('',*,*,#374,.F.);
#242=ORIENTED_EDGE('',*,*,#370,.T.);
#243=CARTESIAN_POINT('',(4.1,-1.6,1000.0));
#244=DIRECTION('',(0.999425947139835,0.0338788456657573,0.0));
#245=DIRECTION('',(0.0,-0.0,-1.0));
#246=ORIENTED_EDGE('',*,*,#375,.T.);
#247=ORIENTED_EDGE('',*,*,#376,.F.);
#248=ORIENTED_EDGE('',*,*,#377,.F.);
#249=ORIENTED_EDGE('',*,*,#373,.T.);
#250=CARTESIAN_POINT('',(3.25649573809356,-5.22819480250108,1000.0));
#251=DIRECTION('',(0.0,0.0,1.0));
#252=DIRECTION('',(-1.0,0.0,0.0));
#253=ORIENTED_EDGE('',*,*,#378,.T.);
#254=ORIENTED_EDGE('',*,*,#379,.F.);
#255=ORIENTED_EDGE('',*,*,#380,.F.);
#256=ORIENTED_EDGE('',*,*,#376,.T.);
#257=CARTESIAN_POINT('',(5.25254237288136,-6.1,1000.0));
#258=DIRECTION('',(-0.682744903007332,-0.730656826025398,0.0));
#259=DIRECTION('',(-0.730656826025398,0.682744903007332,0.0));
#260=ORIENTED_EDGE('',*,*,#381,.T.);
#261=ORIENTED_EDGE('',*,*,#382,.F.);
#262=ORIENTED_EDGE('',*,*,#383,.F.);
#263=ORIENTED_EDGE('',*,*,#379,.T.);
#264=CARTESIAN_POINT('',(5.1,-1.6,1000.0));
#265=DIRECTION('',(-0.999425947139835,-0.0338788456657572,0.0));
#266=DIRECTION('',(-0.0338788456657572,0.999425947139835,0.0));
#267=ORIENTED_EDGE('',*,*,#384,.T.);
#268=ORIENTED_EDGE('',*,*,#385,.F.);
#269=ORIENTED_EDGE('',*,*,#386,.F.);
#270=ORIENTED_EDGE('',*,*,#382,.T.);
#271=CARTESIAN_POINT('',(5.6,-1.6,1000.0));
#272=DIRECTION('',(0.0,1.0,0.0));
#273=DIRECTION('',(1.0,-0.0,0.0));
#274=ORIENTED_EDGE('',*,*,#387,.T.);
#275=ORIENTED_EDGE('',*,*,#388,.F.);
#276=ORIENTED_EDGE('',*,*,#389,.F.);
#277=ORIENTED_EDGE('',*,*,#385,.T.);
#278=CARTESIAN_POINT('',(5.6,-1.4,1000.0));
#279=DIRECTION('',(0.0,0.0,1.0));
#280=DIRECTION('',(-1.0,0.0,0.0));
#281=ORIENTED_EDGE('',*,*,#390,.T.);
#282=ORIENTED_EDGE('',*,*,#391,.F.);
#283=ORIENTED_EDGE('',*,*,#392,.F.);
#284=ORIENTED_EDGE('',*,*,#388,.T.);
#285=CARTESIAN_POINT('',(5.8,-0.200000000000002,1000.0));
#286=DIRECTION('',(-1.0,-2.89120579329468E-15,0.0));
#287=DIRECTION('',(-2.89120579329468E-15,1.0,0.0));
#288=ORIENTED_EDGE('',*,*,#393,.T.);
#289=ORIENTED_EDGE('',*,*,#394,.F.);
#290=ORIENTED_EDGE('',*,*,#395,.F.);
#291=ORIENTED_EDGE('',*,*,#391,.T.);
#292=CARTESIAN_POINT('',(5.6,-0.200000000000001,1000.0));
#293=DIRECTION('',(0.0,0.0,1.0));
#294=DIRECTION('',(-1.0,0.0,0.0));
#295=ORIENTED_EDGE('',*,*,#396,.T.);
#296=ORIENTED_EDGE('',*,*,#347,.F.);
#297=ORIENTED_EDGE('',*,*,#397,.F.);
#298=ORIENTED_EDGE('',*,*,#394,.T.);
#299=CARTESIAN_POINT('',(5.59999999999999,-7.10271685216978E-16,1000.0));
#300=DIRECTION('',(0.0,-1.0,0.0));
#301=DIRECTION('',(0.0,0.0,-1.0));
#302=ORIENTED_EDGE('',*,*,#346,.T.);
#303=ORIENTED_EDGE('',*,*,#350,.T.);
#304=ORIENTED_EDGE('',*,*,#353,.T.);
#305=ORIENTED_EDGE('',*,*,#356,.T.);
#306=ORIENTED_EDGE('',*,*,#359,.T.);
#307=ORIENTED_EDGE('',*,*,#362,.T.);
#308=ORIENTED_EDGE('',*,*,#365,.T.);
#309=ORIENTED_EDGE('',*,*,#368,.T.);
#310=ORIENTED_EDGE('',*,*,#371,.T.);
#311=ORIENTED_EDGE('',*,*,#374,.T.);
#312=ORIENTED_EDGE('',*,*,#377,.T.);
#313=ORIENTED_EDGE('',*,*,#380,.T.);
#314=ORIENTED_EDGE('',*,*,#383,.T.);
#315=ORIENTED_EDGE('',*,*,#386,.T.);
#316=ORIENTED_EDGE('',*,*,#389,.T.);
#317=ORIENTED_EDGE('',*,*,#392,.T.);
#318=ORIENTED_EDGE('',*,*,#395,.T.);
#319=ORIENTED_EDGE('',*,*,#397,.T.);
#320=CARTESIAN_POINT('',(-5.6,-0.200000000000001,1000.0));
#321=DIRECTION('',(0.0,0.0,1.0));
#322=DIRECTION('',(1.0,0.0,0.0));
#323=ORIENTED_EDGE('',*,*,#344,.F.);
#324=ORIENTED_EDGE('',*,*,#396,.F.);
#325=ORIENTED_EDGE('',*,*,#393,.F.);
#326=ORIENTED_EDGE('',*,*,#390,.F.);
#327=ORIENTED_EDGE('',*,*,#387,.F.);
#328=ORIENTED_EDGE('',*,*,#384,.F.);
#329=ORIENTED_EDGE('',*,*,#381,.F.);
#330=ORIENTED_EDGE('',*,*,#378,.F.);
#331=ORIENTED_EDGE('',*,*,#375,.F.);
#332=ORIENTED_EDGE('',*,*,#372,.F.);
#333=ORIENTED_EDGE('',*,*,#369,.F.);
#334=ORIENTED_EDGE('',*,*,#366,.F.);
#335=ORIENTED_EDGE('',*,*,#363,.F.);
#336=ORIENTED_EDGE('',*,*,#360,.F.);
#337=ORIENTED_EDGE('',*,*,#357,.F.);
#338=ORIENTED_EDGE('',*,*,#354,.F.);
#339=ORIENTED_EDGE('',*,*,#351,.F.);
#340=ORIENTED_EDGE('',*,*,#348,.F.);
#341=CARTESIAN_POINT('',(-5.6,-0.200000000000001,0.0));
#342=DIRECTION('',(0.0,0.0,1.0));
#343=DIRECTION('',(1.0,0.0,0.0));
#344=EDGE_CURVE('',#398,#399,#400,.T.);
#345=EDGE_CURVE('',#401,#399,#402,.T.);
#346=EDGE_CURVE('',#403,#401,#404,.T.);
#347=EDGE_CURVE('',#403,#398,#405,.T.);
#348=EDGE_CURVE('',#399,#406,#407,.T.);
#349=EDGE_CURVE('',#408,#406,#409,.T.);
#350=EDGE_CURVE('',#401,#408,#410,.T.);
#351=EDGE_CURVE('',#406,#411,#412,.T.);
#352=EDGE_CURVE('',#413,#411,#414,.T.);
#353=EDGE_CURVE('',#408,#413,#415,.T.);
#354=EDGE_CURVE('',#411,#416,#417,.T.);
#355=EDGE_CURVE('',#418,#416,#419,.T.);
#356=EDGE_CURVE('',#413,#418,#420,.T.);
#357=EDGE_CURVE('',#416,#421,#422,.T.);
#358=EDGE_CURVE('',#423,#421,#424,.T.);
#359=EDGE_CURVE('',#418,#423,#425,.T.);
#360=EDGE_CURVE('',#421,#426,#427,.T.);
#361=EDGE_CURVE('',#428,#426,#429,.T.);
#362=EDGE_CURVE('',#423,#428,#430,.T.);
#363=EDGE_CURVE('',#426,#431,#432,.T.);
#364=EDGE_CURVE('',#433,#431,#434,.T.);
#365=EDGE_CURVE('',#428,#433,#435,.T.);
#366=EDGE_CURVE('',#431,#436,#437,.T.);
#367=EDGE_CURVE('',#438,#436,#439,.T.);
#368=EDGE_CURVE('',#433,#438,#440,.T.);
#369=EDGE_CURVE('',#436,#441,#442,.T.);
#370=EDGE_CURVE('',#443,#441,#444,.T.);
#371=EDGE_CURVE('',#438,#443,#445,.T.);
#372=EDGE_CURVE('',#441,#446,#447,.T.);
#373=EDGE_CURVE('',#448,#446,#449,.T.);
#374=EDGE_CURVE('',#443,#448,#450,.T.);
#375=EDGE_CURVE('',#446,#451,#452,.T.);
#376=EDGE_CURVE('',#453,#451,#454,.T.);
#377=EDGE_CURVE('',#448,#453,#455,.T.);
#378=EDGE_CURVE('',#451,#456,#457,.T.);
#379=EDGE_CURVE('',#458,#456,#459,.T.);
#380=EDGE_CURVE('',#453,#458,#460,.T.);
#381=EDGE_CURVE('',#456,#461,#462,.T.);
#382=EDGE_CURVE('',#463,#461,#464,.T.);
#383=EDGE_CURVE('',#458,#463,#465,.T.);
#384=EDGE_CURVE('',#461,#466,#467,.T.);
#385=EDGE_CURVE('',#468,#466,#469,.T.);
#386=EDGE_CURVE('',#463,#468,#470,.T.);
#387=EDGE_CURVE('',#466,#471,#472,.T.);
#388=EDGE_CURVE('',#473,#471,#474,.T.);
#389=EDGE_CURVE('',#468,#473,#475,.T.);
#390=EDGE_CURVE('',#471,#476,#477,.T.);
#391=EDGE_CURVE('',#478,#476,#479,.T.);
#392=EDGE_CURVE('',#473,#478,#480,.T.);
#393=EDGE_CURVE('',#476,#481,#482,.T.);
#394=EDGE_CURVE('',#483,#481,#484,.T.);
#395=EDGE_CURVE('',#478,#483,#485,.T.);
#396=EDGE_CURVE('',#481,#398,#486,.T.);
#397=EDGE_CURVE('',#483,#403,#487,.T.);
#398=VERTEX_POINT('',#488);
#399=VERTEX_POINT('',#489);
#400=CIRCLE('',#490,0.2);
#401=VERTEX_POINT('',#491);
#402=LINE('',#492,#493);
#403=VERTEX_POINT('',#494);
#404=CIRCLE('',#495,0.2);
#405=LINE('',#496,#497);
#406=VERTEX_POINT('',#498);
#407=LINE('',#499,#500);
#408=VERTEX_POINT('',#501);
#409=LINE('',#502,#503);
#410=LINE('',#504,#505);
#411=VERTEX_POINT('',#506);
#412=CIRCLE('',#507,0.2);
#413=VERTEX_POINT('',#508);
#414=LINE('',#509,#510);
#415=CIRCLE('',#511,0.2);
#416=VERTEX_POINT('',#512);
#417=LINE('',#513,#514);
#418=VERTEX_POINT('',#515);
#419=LINE('',#516,#517);
#420=LINE('',#518,#519);
#421=VERTEX_POINT('',#520);
#422=LINE('',#521,#522);
#423=VERTEX_POINT('',#523);
#424=LINE('',#524,#525);
#425=LINE('',#526,#527);
#426=VERTEX_POINT('',#528);
#427=LINE('',#529,#530);
#428=VERTEX_POINT('',#531);
#429=LINE('',#532,#533);
#430=LINE('',#534,#535);
#431=VERTEX_POINT('',#536);
#432=CIRCLE('',#537,2.5);
#433=VERTEX_POINT('',#538);
#434=LINE('',#539,#540);
#435=CIRCLE('',#541,2.5);
#436=VERTEX_POINT('',#542);
#437=LINE('',#543,#544);
#438=VERTEX_POINT('',#545);
#439=LINE('',#546,#547);
#440=LINE('',#548,#549);
#441=VERTEX_POINT('',#550);
#442=LINE('',#551,#552);
#443=VERTEX_POINT('',#553);
#444=LINE('',#554,#555);
#445=LINE('',#556,#557);
#446=VERTEX_POINT('',#558);
#447=LINE('',#559,#560);
#448=VERTEX_POINT('',#561);
#449=LINE('',#562,#563);
#450=LINE('',#564,#565);
#451=VERTEX_POINT('',#566);
#452=CIRCLE('',#567,2.5);
#453=VERTEX_POINT('',#568);
#454=LINE('',#569,#570);
#455=CIRCLE('',#571,2.5);
#456=VERTEX_POINT('',#572);
#457=LINE('',#573,#574);
#458=VERTEX_POINT('',#575);
#459=LINE('',#576,#577);
#460=LINE('',#578,#579);
#461=VERTEX_POINT('',#580);
#462=LINE('',#581,#582);
#463=VERTEX_POINT('',#583);
#464=LINE('',#584,#585);
#465=LINE('',#586,#587);
#466=VERTEX_POINT('',#588);
#467=LINE('',#589,#590);
#468=VERTEX_POINT('',#591);
#469=LINE('',#592,#593);
#470=LINE('',#594,#595);
#471=VERTEX_POINT('',#596);
#472=CIRCLE('',#597,0.2);
#473=VERTEX_POINT('',#598);
#474=LINE('',#599,#600);
#475=CIRCLE('',#601,0.2);
#476=VERTEX_POINT('',#602);
#477=LINE('',#603,#604);
#478=VERTEX_POINT('',#605);
#479=LINE('',#606,#607);
#480=LINE('',#608,#609);
#481=VERTEX_POINT('',#610);
#482=CIRCLE('',#611,0.2);
#483=VERTEX_POINT('',#612);
#484=LINE('',#613,#614);
#485=CIRCLE('',#615,0.2);
#486=LINE('',#616,#617);
#487=LINE('',#618,#619);
#488=CARTESIAN_POINT('',(-5.59999999999999,-7.10271685216978E-16,0.0));
#489=CARTESIAN_POINT('',(-5.8,-0.200000000000002,0.0));
#490=AXIS2_PLACEMENT_3D('',#620,#621,#622);
#491=CARTESIAN_POINT('',(-5.8,-0.200000000000002,1000.0));
#492=CARTESIAN_POINT('',(-5.8,-0.200000000000002,1000.0));
#493=VECTOR('',#623,1000.0);
#494=CARTESIAN_POINT('',(-5.59999999999999,-7.10271685216978E-16,1000.0));
#495=AXIS2_PLACEMENT_3D('',#624,#625,#626);
#496=CARTESIAN_POINT('',(-5.59999999999999,-7.10271685216978E-16,1000.0));
#497=VECTOR('',#627,1000.0);
#498=CARTESIAN_POINT('',(-5.8,-1.4,0.0));
#499=CARTESIAN_POINT('',(-5.8,-0.200000000000002,0.0));
#500=VECTOR('',#628,1000.0);
#501=CARTESIAN_POINT('',(-5.8,-1.4,1000.0));
#502=CARTESIAN_POINT('',(-5.8,-1.4,1000.0));
#503=VECTOR('',#629,1000.0);
#504=CARTESIAN_POINT('',(-5.8,-0.200000000000002,1000.0));
#505=VECTOR('',#630,1000.0);
#506=CARTESIAN_POINT('',(-5.6,-1.6,0.0));
#507=AXIS2_PLACEMENT_3D('',#631,#632,#633);
#508=CARTESIAN_POINT('',(-5.6,-1.6,1000.0));
#509=CARTESIAN_POINT('',(-5.6,-1.6,1000.0));
#510=VECTOR('',#634,1000.0);
#511=AXIS2_PLACEMENT_3D('',#635,#636,#637);
#512=CARTESIAN_POINT('',(-5.1,-1.6,0.0));
#513=CARTESIAN_POINT('',(-5.6,-1.6,0.0));
#514=VECTOR('',#638,1000.0);
#515=CARTESIAN_POINT('',(-5.1,-1.6,1000.0));
#516=CARTESIAN_POINT('',(-5.1,-1.6,1000.0));
#517=VECTOR('',#639,1000.0);
#518=CARTESIAN_POINT('',(-5.6,-1.6,1000.0));
#519=VECTOR('',#640,1000.0);
#520=CARTESIAN_POINT('',(-5.25254237288135,-6.1,0.0));
#521=CARTESIAN_POINT('',(-5.1,-1.6,0.0));
#522=VECTOR('',#641,1000.0);
#523=CARTESIAN_POINT('',(-5.25254237288135,-6.1,1000.0));
#524=CARTESIAN_POINT('',(-5.25254237288135,-6.1,1000.0));
#525=VECTOR('',#642,1000.0);
#526=CARTESIAN_POINT('',(-5.1,-1.6,1000.0));
#527=VECTOR('',#643,1000.0);
#528=CARTESIAN_POINT('',(-5.5,-6.33123089747152,0.0));
#529=CARTESIAN_POINT('',(-5.25254237288135,-6.1,0.0));
#530=VECTOR('',#644,1000.0);
#531=CARTESIAN_POINT('',(-5.5,-6.33123089747152,1000.0));
#532=CARTESIAN_POINT('',(-5.5,-6.33123089747152,1000.0));
#533=VECTOR('',#645,1000.0);
#534=CARTESIAN_POINT('',(-5.25254237288135,-6.1,1000.0));
#535=VECTOR('',#646,1000.0);
#536=CARTESIAN_POINT('',(-4.3,-7.5,0.0));
#537=AXIS2_PLACEMENT_3D('',#647,#648,#649);
#538=CARTESIAN_POINT('',(-4.3,-7.5,1000.0));
#539=CARTESIAN_POINT('',(-4.3,-7.5,1000.0));
#540=VECTOR('',#650,1000.0);
#541=AXIS2_PLACEMENT_3D('',#651,#652,#653);
#542=CARTESIAN_POINT('',(-4.1,-1.6,0.0));
#543=CARTESIAN_POINT('',(-4.1,-1.6,0.0));
#544=VECTOR('',#654,1000.0);
#545=CARTESIAN_POINT('',(-4.1,-1.6,1000.0));
#546=CARTESIAN_POINT('',(-4.1,-1.6,1000.0));
#547=VECTOR('',#655,1000.0);
#548=CARTESIAN_POINT('',(-4.1,-1.6,1000.0));
#549=VECTOR('',#656,1000.0);
#550=CARTESIAN_POINT('',(4.1,-1.6,0.0));
#551=CARTESIAN_POINT('',(-4.1,-1.6,0.0));
#552=VECTOR('',#657,1000.0);
#553=CARTESIAN_POINT('',(4.1,-1.6,1000.0));
#554=CARTESIAN_POINT('',(4.1,-1.6,1000.0));
#555=VECTOR('',#658,1000.0);
#556=CARTESIAN_POINT('',(-4.1,-1.6,1000.0));
#557=VECTOR('',#659,1000.0);
#558=CARTESIAN_POINT('',(4.3,-7.5,0.0));
#559=CARTESIAN_POINT('',(4.1,-1.6,0.0));
#560=VECTOR('',#660,1000.0);
#561=CARTESIAN_POINT('',(4.3,-7.5,1000.0));
#562=CARTESIAN_POINT('',(4.3,-7.5,1000.0));
#563=VECTOR('',#661,1000.0);
#564=CARTESIAN_POINT('',(4.1,-1.6,1000.0));
#565=VECTOR('',#662,1000.0);
#566=CARTESIAN_POINT('',(5.5,-6.33123089747152,0.0));
#567=AXIS2_PLACEMENT_3D('',#663,#664,#665);
#568=CARTESIAN_POINT('',(5.5,-6.33123089747152,1000.0));
#569=CARTESIAN_POINT('',(5.5,-6.33123089747152,1000.0));
#570=VECTOR('',#666,1000.0);
#571=AXIS2_PLACEMENT_3D('',#667,#668,#669);
#572=CARTESIAN_POINT('',(5.25254237288136,-6.1,0.0));
#573=CARTESIAN_POINT('',(5.25254237288136,-6.1,0.0));
#574=VECTOR('',#670,1000.0);
#575=CARTESIAN_POINT('',(5.25254237288136,-6.1,1000.0));
#576=CARTESIAN_POINT('',(5.25254237288136,-6.1,1000.0));
#577=VECTOR('',#671,1000.0);
#578=CARTESIAN_POINT('',(5.25254237288136,-6.1,1000.0));
#579=VECTOR('',#672,1000.0);
#580=CARTESIAN_POINT('',(5.1,-1.6,0.0));
#581=CARTESIAN_POINT('',(5.1,-1.6,0.0));
#582=VECTOR('',#673,1000.0);
#583=CARTESIAN_POINT('',(5.1,-1.6,1000.0));
#584=CARTESIAN_POINT('',(5.1,-1.6,1000.0));
#585=VECTOR('',#674,1000.0);
#586=CARTESIAN_POINT('',(5.1,-1.6,1000.0));
#587=VECTOR('',#675,1000.0);
#588=CARTESIAN_POINT('',(5.6,-1.6,0.0));
#589=CARTESIAN_POINT('',(5.6,-1.6,0.0));
#590=VECTOR('',#676,1000.0);
#591=CARTESIAN_POINT('',(5.6,-1.6,1000.0));
#592=CARTESIAN_POINT('',(5.6,-1.6,1000.0));
#593=VECTOR('',#677,1000.0);
#594=CARTESIAN_POINT('',(5.6,-1.6,1000.0));
#595=VECTOR('',#678,1000.0);
#596=CARTESIAN_POINT('',(5.8,-1.4,0.0));
#597=AXIS2_PLACEMENT_3D('',#679,#680,#681);
#598=CARTESIAN_POINT('',(5.8,-1.4,1000.0));
#599=CARTESIAN_POINT('',(5.8,-1.4,1000.0));
#600=VECTOR('',#682,1000.0);
#601=AXIS2_PLACEMENT_3D('',#683,#684,#685);
#602=CARTESIAN_POINT('',(5.8,-0.200000000000002,0.0));
#603=CARTESIAN_POINT('',(5.8,-0.200000000000002,0.0));
#604=VECTOR('',#686,1000.0);
#605=CARTESIAN_POINT('',(5.8,-0.200000000000002,1000.0));
#606=CARTESIAN_POINT('',(5.8,-0.200000000000002,1000.0));
#607=VECTOR('',#687,1000.0);
#608=CARTESIAN_POINT('',(5.8,-0.200000000000002,1000.0));
#609=VECTOR('',#688,1000.0);
#610=CARTESIAN_POINT('',(5.59999999999999,-7.10271685216978E-16,0.0));
#611=AXIS2_PLACEMENT_3D('',#689,#690,#691);
#612=CARTESIAN_POINT('',(5.59999999999999,-7.10271685216978E-16,1000.0));
#613=CARTESIAN_POINT('',(5.59999999999999,-7.10271685216978E-16,1000.0));
#614=VECTOR('',#692,1000.0);
#615=AXIS2_PLACEMENT_3D('',#693,#694,#695);
#616=CARTESIAN_POINT('',(5.59999999999999,-7.10271685216978E-16,0.0));
#617=VECTOR('',#696,1000.0);
#618=CARTESIAN_POINT('',(5.59999999999999,-7.10271685216978E-16,1000.0));
#619=VECTOR('',#697,1000.0);
#620=CARTESIAN_POINT('',(-5.6,-0.200000000000001,0.0));
#621=DIRECTION('',(0.0,0.0,1.0));
#622=DIRECTION('',(1.0,0.0,0.0));
#623=DIRECTION('',(-0.0,-0.0,-1.0));
#624=CARTESIAN_POINT('',(-5.6,-0.200000000000001,1000.0));
#625=DIRECTION('',(0.0,0.0,1.0));
#626=DIRECTION('',(1.0,0.0,0.0));
#627=DIRECTION('',(-0.0,-0.0,-1.0));
#628=DIRECTION('',(-2.89120579329468E-15,-1.0,0.0));
#629=DIRECTION('',(-0.0,-0.0,-1.0));
#630=DIRECTION('',(-2.89120579329468E-15,-1.0,0.0));
#631=CARTESIAN_POINT('',(-5.6,-1.4,0.0));
#632=DIRECTION('',(0.0,0.0,1.0));
#633=DIRECTION('',(1.0,0.0,0.0));
#634=DIRECTION('',(-0.0,-0.0,-1.0));
#635=CARTESIAN_POINT('',(-5.6,-1.4,1000.0));
#636=DIRECTION('',(0.0,0.0,1.0));
#637=DIRECTION('',(1.0,0.0,0.0));
#638=DIRECTION('',(1.0,0.0,0.0));
#639=DIRECTION('',(-0.0,-0.0,-1.0));
#640=DIRECTION('',(1.0,0.0,0.0));
#641=DIRECTION('',(-0.0338788456657568,-0.999425947139835,0.0));
#642=DIRECTION('',(-0.0,-0.0,-1.0));
#643=DIRECTION('',(-0.0338788456657568,-0.999425947139835,0.0));
#644=DIRECTION('',(-0.730656826025397,-0.682744903007333,0.0));
#645=DIRECTION('',(-0.0,-0.0,-1.0));
#646=DIRECTION('',(-0.730656826025397,-0.682744903007333,0.0));
#647=CARTESIAN_POINT('',(-3.25649573809356,-5.22819480250108,0.0));
#648=DIRECTION('',(0.0,0.0,1.0));
#649=DIRECTION('',(1.0,0.0,0.0));
#650=DIRECTION('',(-0.0,-0.0,-1.0));
#651=CARTESIAN_POINT('',(-3.25649573809356,-5.22819480250108,1000.0));
#652=DIRECTION('',(0.0,0.0,1.0));
#653=DIRECTION('',(1.0,0.0,0.0));
#654=DIRECTION('',(0.0338788456657571,0.999425947139835,-0.0));
#655=DIRECTION('',(-0.0,-0.0,-1.0));
#656=DIRECTION('',(0.0338788456657571,0.999425947139835,-0.0));
#657=DIRECTION('',(1.0,1.32219777132379E-16,0.0));
#658=DIRECTION('',(-0.0,-0.0,-1.0));
#659=DIRECTION('',(1.0,1.32219777132379E-16,0.0));
#660=DIRECTION('',(0.0338788456657573,-0.999425947139835,0.0));
#661=DIRECTION('',(-0.0,-0.0,-1.0));
#662=DIRECTION('',(0.0338788456657573,-0.999425947139835,0.0));
#663=CARTESIAN_POINT('',(3.25649573809356,-5.22819480250108,0.0));
#664=DIRECTION('',(0.0,0.0,1.0));
#665=DIRECTION('',(-1.0,0.0,0.0));
#666=DIRECTION('',(-0.0,-0.0,-1.0));
#667=CARTESIAN_POINT('',(3.25649573809356,-5.22819480250108,1000.0));
#668=DIRECTION('',(0.0,0.0,1.0));
#669=DIRECTION('',(-1.0,0.0,0.0));
#670=DIRECTION('',(-0.730656826025398,0.682744903007332,-0.0));
#671=DIRECTION('',(-0.0,-0.0,-1.0));
#672=DIRECTION('',(-0.730656826025398,0.682744903007332,-0.0));
#673=DIRECTION('',(-0.0338788456657572,0.999425947139835,-0.0));
#674=DIRECTION('',(-0.0,-0.0,-1.0));
#675=DIRECTION('',(-0.0338788456657572,0.999425947139835,-0.0));
#676=DIRECTION('',(1.0,-0.0,-0.0));
#677=DIRECTION('',(-0.0,-0.0,-1.0));
#678=DIRECTION('',(1.0,-0.0,-0.0));
#679=CARTESIAN_POINT('',(5.6,-1.4,0.0));
#680=DIRECTION('',(0.0,0.0,1.0));
#681=DIRECTION('',(1.0,0.0,0.0));
#682=DIRECTION('',(-0.0,-0.0,-1.0));
#683=CARTESIAN_POINT('',(5.6,-1.4,1000.0));
#684=DIRECTION('',(0.0,0.0,1.0));
#685=DIRECTION('',(1.0,0.0,0.0));
#686=DIRECTION('',(-2.89120579329468E-15,1.0,-0.0));
#687=DIRECTION('',(-0.0,-0.0,-1.0));
#688=DIRECTION('',(-2.89120579329468E-15,1.0,-0.0));
#689=CARTESIAN_POINT('',(5.6,-0.200000000000001,0.0));
#690=DIRECTION('',(0.0,0.0,1.0));
#691=DIRECTION('',(1.0,0.0,0.0));
#692=DIRECTION('',(-0.0,-0.0,-1.0));
#693=CARTESIAN_POINT('',(5.6,-0.200000000000001,1000.0));
#694=DIRECTION('',(0.0,0.0,1.0));
#695=DIRECTION('',(1.0,0.0,0.0));
#696=DIRECTION('',(-1.0,0.0,0.0));
#697=DIRECTION('',(-1.0,0.0,0.0));
ENDSEC;
END-ISO-10303-21;
