ISO-10303-21;
HEADER;
FILE_DESCRIPTION(('STEP AP203'),'1');
FILE_NAME('fath_093wu201s.stp','2021-11-24T06:55:37',('TraceParts'),('TraceParts S.A.'),'Spatial InterOp 3D',' ',' ');
FILE_SCHEMA(('CONFIG_CONTROL_DESIGN'));
ENDSEC;
DATA;
#1=DESIGN_CONTEXT('',#27,'design');
#2=APPLICATION_PROTOCOL_DEFINITION('INTERNATIONAL STANDARD','config_control_design',1994,#27);
#3=PRODUCT_CATEGORY_RELATIONSHIP('NONE','NONE',#28,#29);
#4=DATE_AND_TIME(#30,#31);
#5=DATE_TIME_ROLE('creation_date');
#6=DATE_TIME_ROLE('classification_date');
#7=PERSON_AND_ORGANIZATION_ROLE('creator');
#8=PERSON_AND_ORGANIZATION_ROLE('design_supplier');
#9=PERSON_AND_ORGANIZATION_ROLE('classification_officer');
#10=PERSON_AND_ORGANIZATION_ROLE('design_owner');
#11=APPROVAL_PERSON_ORGANIZATION(#32,#33,#34);
#12=APPROVAL_DATE_TIME(#4,#33);
#13=CC_DESIGN_APPROVAL(#33,(#35,#36,#37));
#14=CC_DESIGN_DATE_AND_TIME_ASSIGNMENT(#4,#5,(#37));
#15=CC_DESIGN_DATE_AND_TIME_ASSIGNMENT(#4,#6,(#35));
#16=CC_DESIGN_PERSON_AND_ORGANIZATION_ASSIGNMENT(#32,#10,(#38));
#17=CC_DESIGN_PERSON_AND_ORGANIZATION_ASSIGNMENT(#32,#7,(#37));
#18=CC_DESIGN_PERSON_AND_ORGANIZATION_ASSIGNMENT(#32,#7,(#36));
#19=CC_DESIGN_PERSON_AND_ORGANIZATION_ASSIGNMENT(#32,#8,(#36));
#20=CC_DESIGN_SECURITY_CLASSIFICATION(#35,(#36));
#21=CC_DESIGN_PERSON_AND_ORGANIZATION_ASSIGNMENT(#32,#9,(#35));
#22=SHAPE_DEFINITION_REPRESENTATION(#39,#40);
#23= (GEOMETRIC_REPRESENTATION_CONTEXT(3)GLOBAL_UNCERTAINTY_ASSIGNED_CONTEXT((#43))GLOBAL_UNIT_ASSIGNED_CONTEXT((#45,#46,#47))REPRESENTATION_CONTEXT('NONE','WORKSPACE'));
#27=APPLICATION_CONTEXT('CONFIGURATION CONTROLLED 3D DESIGNS OF MECHANICAL PARTS AND ASSEMBLIES');
#28=PRODUCT_CATEGORY('part','NONE');
#29=PRODUCT_RELATED_PRODUCT_CATEGORY('detail',' ',(#38));
#30=CALENDAR_DATE(2021,24,10);
#31=LOCAL_TIME(7,55,37.0,#49);
#32=PERSON_AND_ORGANIZATION(#50,#51);
#33=APPROVAL(#52,'SOLID MODEL');
#34=APPROVAL_ROLE('APPROVED');
#35=SECURITY_CLASSIFICATION('','',#53);
#36=PRODUCT_DEFINITION_FORMATION_WITH_SPECIFIED_SOURCE(' ','NONE',#38,.NOT_KNOWN.);
#37=PRODUCT_DEFINITION('','NONE',#36,#1);
#38=PRODUCT('1','','PART--DESC',(#54));
#39=PRODUCT_DEFINITION_SHAPE('NONE','NONE',#37);
#40=ADVANCED_BREP_SHAPE_REPRESENTATION('1',(#55,#56),#23);
#43=UNCERTAINTY_MEASURE_WITH_UNIT(LENGTH_MEASURE(1.0E-06),#45,'','');
#45= (CONVERSION_BASED_UNIT('MILLIMETRE',#59)LENGTH_UNIT()NAMED_UNIT(#62));
#46= (NAMED_UNIT(#64)PLANE_ANGLE_UNIT()SI_UNIT($,.RADIAN.));
#47= (NAMED_UNIT(#64)SOLID_ANGLE_UNIT()SI_UNIT($,.STERADIAN.));
#49=COORDINATED_UNIVERSAL_TIME_OFFSET(1,0,.AHEAD.);
#50=PERSON('','UNSPECIFIED',$,$,$,$);
#51=ORGANIZATION('UNSPECIFIED','UNSPECIFIED','UNSPECIFIED');
#52=APPROVAL_STATUS('approved');
#53=SECURITY_CLASSIFICATION_LEVEL('unclassified');
#54=MECHANICAL_CONTEXT('',#27,'mechanical');
#55=MANIFOLD_SOLID_BREP('1',#70);
#56=AXIS2_PLACEMENT_3D('',#71,#72,#73);
#59=LENGTH_MEASURE_WITH_UNIT(LENGTH_MEASURE(1.0),#74);
#62=DIMENSIONAL_EXPONENTS(1.0,0.0,0.0,0.0,0.0,0.0,0.0);
#64=DIMENSIONAL_EXPONENTS(0.0,0.0,0.0,0.0,0.0,0.0,0.0);
#70=CLOSED_SHELL('',(#75,#76,#77,#78,#79,#80,#81,#82,#83,#84,#85,#86,#87,#88,#89,#90));
#71=CARTESIAN_POINT('',(0.0,0.0,0.0));
#72=DIRECTION('',(0.0,0.0,1.0));
#73=DIRECTION('',(1.0,0.0,0.0));
#74= (NAMED_UNIT(#62)LENGTH_UNIT()SI_UNIT(.MILLI.,.METRE.));
#75=ADVANCED_FACE('',(#92),#93,.F.);
#76=ADVANCED_FACE('',(#94),#95,.F.);
#77=ADVANCED_FACE('',(#96),#97,.F.);
#78=ADVANCED_FACE('',(#98),#99,.F.);
#79=ADVANCED_FACE('',(#100,#101),#102,.F.);
#80=ADVANCED_FACE('',(#103),#104,.F.);
#81=ADVANCED_FACE('',(#105,#106),#107,.F.);
#82=ADVANCED_FACE('',(#108),#109,.F.);
#83=ADVANCED_FACE('',(#110,#111),#112,.F.);
#84=ADVANCED_FACE('',(#113,#114),#115,.F.);
#85=ADVANCED_FACE('',(#116),#117,.F.);
#86=ADVANCED_FACE('',(#118),#119,.T.);
#87=ADVANCED_FACE('',(#120),#121,.F.);
#88=ADVANCED_FACE('',(#122),#123,.F.);
#89=ADVANCED_FACE('',(#124),#125,.F.);
#90=ADVANCED_FACE('',(#126),#127,.F.);
#92=FACE_OUTER_BOUND('',#128,.T.);
#93=CONICAL_SURFACE('',#129,5.2,0.785398163397448);
#94=FACE_OUTER_BOUND('',#130,.T.);
#95=CYLINDRICAL_SURFACE('',#131,2.75);
#96=FACE_OUTER_BOUND('',#132,.T.);
#97=CONICAL_SURFACE('',#133,5.2,0.785398163397448);
#98=FACE_OUTER_BOUND('',#134,.T.);
#99=CYLINDRICAL_SURFACE('',#135,2.75);
#100=FACE_OUTER_BOUND('',#136,.T.);
#101=FACE_BOUND('',#137,.T.);
#102=PLANE('',#138);
#103=FACE_OUTER_BOUND('',#139,.T.);
#104=PLANE('',#140);
#105=FACE_OUTER_BOUND('',#141,.T.);
#106=FACE_BOUND('',#142,.T.);
#107=PLANE('',#143);
#108=FACE_OUTER_BOUND('',#144,.T.);
#109=PLANE('',#145);
#110=FACE_OUTER_BOUND('',#146,.T.);
#111=FACE_BOUND('',#147,.T.);
#112=PLANE('',#148);
#113=FACE_OUTER_BOUND('',#149,.T.);
#114=FACE_BOUND('',#150,.T.);
#115=PLANE('',#151);
#116=FACE_OUTER_BOUND('',#152,.T.);
#117=PLANE('',#153);
#118=FACE_OUTER_BOUND('',#154,.T.);
#119=PLANE('',#155);
#120=FACE_OUTER_BOUND('',#156,.T.);
#121=CYLINDRICAL_SURFACE('',#157,2.75);
#122=FACE_OUTER_BOUND('',#158,.T.);
#123=CONICAL_SURFACE('',#159,5.2,0.785398163397448);
#124=FACE_OUTER_BOUND('',#160,.T.);
#125=CYLINDRICAL_SURFACE('',#161,2.75);
#126=FACE_OUTER_BOUND('',#162,.T.);
#127=CONICAL_SURFACE('',#163,5.2,0.785398163397448);
#128=EDGE_LOOP('',(#164,#165,#166,#167));
#129=AXIS2_PLACEMENT_3D('',#168,#169,#170);
#130=EDGE_LOOP('',(#171,#172,#173,#174));
#131=AXIS2_PLACEMENT_3D('',#175,#176,#177);
#132=EDGE_LOOP('',(#178,#179,#180,#181));
#133=AXIS2_PLACEMENT_3D('',#182,#183,#184);
#134=EDGE_LOOP('',(#185,#186,#187,#188));
#135=AXIS2_PLACEMENT_3D('',#189,#190,#191);
#136=EDGE_LOOP('',(#192,#193,#194,#195));
#137=EDGE_LOOP('',(#196,#197));
#138=AXIS2_PLACEMENT_3D('',#198,#199,#200);
#139=EDGE_LOOP('',(#201,#202,#203,#204));
#140=AXIS2_PLACEMENT_3D('',#205,#206,#207);
#141=EDGE_LOOP('',(#208,#209,#210,#211));
#142=EDGE_LOOP('',(#212,#213));
#143=AXIS2_PLACEMENT_3D('',#214,#215,#216);
#144=EDGE_LOOP('',(#217,#218,#219,#220));
#145=AXIS2_PLACEMENT_3D('',#221,#222,#223);
#146=EDGE_LOOP('',(#224,#225,#226,#227));
#147=EDGE_LOOP('',(#228,#229));
#148=AXIS2_PLACEMENT_3D('',#230,#231,#232);
#149=EDGE_LOOP('',(#233,#234,#235,#236));
#150=EDGE_LOOP('',(#237,#238));
#151=AXIS2_PLACEMENT_3D('',#239,#240,#241);
#152=EDGE_LOOP('',(#242,#243,#244,#245,#246,#247));
#153=AXIS2_PLACEMENT_3D('',#248,#249,#250);
#154=EDGE_LOOP('',(#251,#252,#253,#254,#255,#256));
#155=AXIS2_PLACEMENT_3D('',#257,#258,#259);
#156=EDGE_LOOP('',(#260,#261,#262,#263));
#157=AXIS2_PLACEMENT_3D('',#264,#265,#266);
#158=EDGE_LOOP('',(#267,#268,#269,#270));
#159=AXIS2_PLACEMENT_3D('',#271,#272,#273);
#160=EDGE_LOOP('',(#274,#275,#276,#277));
#161=AXIS2_PLACEMENT_3D('',#278,#279,#280);
#162=EDGE_LOOP('',(#281,#282,#283,#284));
#163=AXIS2_PLACEMENT_3D('',#285,#286,#287);
#164=ORIENTED_EDGE('',*,*,#288,.F.);
#165=ORIENTED_EDGE('',*,*,#289,.F.);
#166=ORIENTED_EDGE('',*,*,#290,.F.);
#167=ORIENTED_EDGE('',*,*,#291,.T.);
#168=CARTESIAN_POINT('',(3.0,10.0,0.0));
#169=DIRECTION('',(1.0,2.22044604925031E-16,-0.0));
#170=DIRECTION('',(0.0,0.0,1.0));
#171=ORIENTED_EDGE('',*,*,#292,.F.);
#172=ORIENTED_EDGE('',*,*,#291,.F.);
#173=ORIENTED_EDGE('',*,*,#293,.F.);
#174=ORIENTED_EDGE('',*,*,#294,.F.);
#175=CARTESIAN_POINT('',(3.0,10.0,0.0));
#176=DIRECTION('',(-1.0,-2.22044604925031E-16,0.0));
#177=DIRECTION('',(0.0,0.0,1.0));
#178=ORIENTED_EDGE('',*,*,#295,.F.);
#179=ORIENTED_EDGE('',*,*,#296,.T.);
#180=ORIENTED_EDGE('',*,*,#297,.F.);
#181=ORIENTED_EDGE('',*,*,#298,.F.);
#182=CARTESIAN_POINT('',(10.0,3.0,0.0));
#183=DIRECTION('',(-0.0,1.0,-0.0));
#184=DIRECTION('',(0.0,0.0,1.0));
#185=ORIENTED_EDGE('',*,*,#299,.F.);
#186=ORIENTED_EDGE('',*,*,#298,.T.);
#187=ORIENTED_EDGE('',*,*,#300,.F.);
#188=ORIENTED_EDGE('',*,*,#301,.T.);
#189=CARTESIAN_POINT('',(10.0,3.0,0.0));
#190=DIRECTION('',(0.0,-1.0,0.0));
#191=DIRECTION('',(0.0,0.0,1.0));
#192=ORIENTED_EDGE('',*,*,#302,.T.);
#193=ORIENTED_EDGE('',*,*,#303,.F.);
#194=ORIENTED_EDGE('',*,*,#304,.F.);
#195=ORIENTED_EDGE('',*,*,#305,.T.);
#196=ORIENTED_EDGE('',*,*,#306,.F.);
#197=ORIENTED_EDGE('',*,*,#301,.F.);
#198=CARTESIAN_POINT('',(0.0,0.0,10.0));
#199=DIRECTION('',(-0.0,1.0,0.0));
#200=DIRECTION('',(1.0,0.0,0.0));
#201=ORIENTED_EDGE('',*,*,#307,.T.);
#202=ORIENTED_EDGE('',*,*,#308,.F.);
#203=ORIENTED_EDGE('',*,*,#309,.F.);
#204=ORIENTED_EDGE('',*,*,#310,.T.);
#205=CARTESIAN_POINT('',(0.0,20.0,10.0));
#206=DIRECTION('',(0.0,-1.0,0.0));
#207=DIRECTION('',(0.0,0.0,-1.0));
#208=ORIENTED_EDGE('',*,*,#311,.T.);
#209=ORIENTED_EDGE('',*,*,#305,.F.);
#210=ORIENTED_EDGE('',*,*,#312,.F.);
#211=ORIENTED_EDGE('',*,*,#308,.T.);
#212=ORIENTED_EDGE('',*,*,#294,.T.);
#213=ORIENTED_EDGE('',*,*,#313,.T.);
#214=CARTESIAN_POINT('',(0.0,20.0,10.0));
#215=DIRECTION('',(1.0,0.0,-0.0));
#216=DIRECTION('',(-0.0,1.0,0.0));
#217=ORIENTED_EDGE('',*,*,#314,.T.);
#218=ORIENTED_EDGE('',*,*,#315,.F.);
#219=ORIENTED_EDGE('',*,*,#316,.F.);
#220=ORIENTED_EDGE('',*,*,#303,.T.);
#221=CARTESIAN_POINT('',(20.0,3.0,10.0));
#222=DIRECTION('',(-1.0,0.0,0.0));
#223=DIRECTION('',(0.0,0.0,1.0));
#224=ORIENTED_EDGE('',*,*,#317,.T.);
#225=ORIENTED_EDGE('',*,*,#318,.F.);
#226=ORIENTED_EDGE('',*,*,#319,.F.);
#227=ORIENTED_EDGE('',*,*,#315,.T.);
#228=ORIENTED_EDGE('',*,*,#296,.F.);
#229=ORIENTED_EDGE('',*,*,#320,.F.);
#230=CARTESIAN_POINT('',(3.0,3.0,10.0));
#231=DIRECTION('',(0.0,-1.0,0.0));
#232=DIRECTION('',(0.0,0.0,-1.0));
#233=ORIENTED_EDGE('',*,*,#321,.T.);
#234=ORIENTED_EDGE('',*,*,#310,.F.);
#235=ORIENTED_EDGE('',*,*,#322,.F.);
#236=ORIENTED_EDGE('',*,*,#318,.T.);
#237=ORIENTED_EDGE('',*,*,#323,.T.);
#238=ORIENTED_EDGE('',*,*,#289,.T.);
#239=CARTESIAN_POINT('',(3.0,20.0,10.0));
#240=DIRECTION('',(-1.0,-1.27553196763001E-16,0.0));
#241=DIRECTION('',(-1.27553196763001E-16,1.0,0.0));
#242=ORIENTED_EDGE('',*,*,#309,.T.);
#243=ORIENTED_EDGE('',*,*,#312,.T.);
#244=ORIENTED_EDGE('',*,*,#304,.T.);
#245=ORIENTED_EDGE('',*,*,#316,.T.);
#246=ORIENTED_EDGE('',*,*,#319,.T.);
#247=ORIENTED_EDGE('',*,*,#322,.T.);
#248=CARTESIAN_POINT('',(0.0,0.0,10.0));
#249=DIRECTION('',(0.0,0.0,-1.0));
#250=DIRECTION('',(0.0,-1.0,0.0));
#251=ORIENTED_EDGE('',*,*,#307,.F.);
#252=ORIENTED_EDGE('',*,*,#321,.F.);
#253=ORIENTED_EDGE('',*,*,#317,.F.);
#254=ORIENTED_EDGE('',*,*,#314,.F.);
#255=ORIENTED_EDGE('',*,*,#302,.F.);
#256=ORIENTED_EDGE('',*,*,#311,.F.);
#257=CARTESIAN_POINT('',(0.0,0.0,-10.0));
#258=DIRECTION('',(0.0,0.0,-1.0));
#259=DIRECTION('',(0.0,-1.0,0.0));
#260=ORIENTED_EDGE('',*,*,#299,.T.);
#261=ORIENTED_EDGE('',*,*,#306,.T.);
#262=ORIENTED_EDGE('',*,*,#300,.T.);
#263=ORIENTED_EDGE('',*,*,#324,.T.);
#264=CARTESIAN_POINT('',(10.0,3.0,0.0));
#265=DIRECTION('',(0.0,-1.0,0.0));
#266=DIRECTION('',(0.0,0.0,1.0));
#267=ORIENTED_EDGE('',*,*,#295,.T.);
#268=ORIENTED_EDGE('',*,*,#324,.F.);
#269=ORIENTED_EDGE('',*,*,#297,.T.);
#270=ORIENTED_EDGE('',*,*,#320,.T.);
#271=CARTESIAN_POINT('',(10.0,3.0,0.0));
#272=DIRECTION('',(-0.0,1.0,-0.0));
#273=DIRECTION('',(0.0,0.0,1.0));
#274=ORIENTED_EDGE('',*,*,#292,.T.);
#275=ORIENTED_EDGE('',*,*,#313,.F.);
#276=ORIENTED_EDGE('',*,*,#293,.T.);
#277=ORIENTED_EDGE('',*,*,#325,.F.);
#278=CARTESIAN_POINT('',(3.0,10.0,0.0));
#279=DIRECTION('',(-1.0,-2.22044604925031E-16,0.0));
#280=DIRECTION('',(0.0,0.0,1.0));
#281=ORIENTED_EDGE('',*,*,#288,.T.);
#282=ORIENTED_EDGE('',*,*,#325,.T.);
#283=ORIENTED_EDGE('',*,*,#290,.T.);
#284=ORIENTED_EDGE('',*,*,#323,.F.);
#285=CARTESIAN_POINT('',(3.0,10.0,0.0));
#286=DIRECTION('',(1.0,2.22044604925031E-16,-0.0));
#287=DIRECTION('',(0.0,0.0,1.0));
#288=EDGE_CURVE('',#326,#327,#328,.T.);
#289=EDGE_CURVE('',#329,#326,#330,.T.);
#290=EDGE_CURVE('',#331,#329,#332,.T.);
#291=EDGE_CURVE('',#331,#327,#333,.T.);
#292=EDGE_CURVE('',#327,#334,#335,.T.);
#293=EDGE_CURVE('',#336,#331,#337,.T.);
#294=EDGE_CURVE('',#334,#336,#338,.T.);
#295=EDGE_CURVE('',#339,#340,#341,.T.);
#296=EDGE_CURVE('',#339,#342,#343,.T.);
#297=EDGE_CURVE('',#344,#342,#345,.T.);
#298=EDGE_CURVE('',#340,#344,#346,.T.);
#299=EDGE_CURVE('',#340,#347,#348,.T.);
#300=EDGE_CURVE('',#349,#344,#350,.T.);
#301=EDGE_CURVE('',#349,#347,#351,.T.);
#302=EDGE_CURVE('',#352,#353,#354,.T.);
#303=EDGE_CURVE('',#355,#353,#356,.T.);
#304=EDGE_CURVE('',#357,#355,#358,.T.);
#305=EDGE_CURVE('',#357,#352,#359,.T.);
#306=EDGE_CURVE('',#347,#349,#360,.T.);
#307=EDGE_CURVE('',#361,#362,#363,.T.);
#308=EDGE_CURVE('',#364,#362,#365,.T.);
#309=EDGE_CURVE('',#366,#364,#367,.T.);
#310=EDGE_CURVE('',#366,#361,#368,.T.);
#311=EDGE_CURVE('',#362,#352,#369,.T.);
#312=EDGE_CURVE('',#364,#357,#370,.T.);
#313=EDGE_CURVE('',#336,#334,#371,.T.);
#314=EDGE_CURVE('',#353,#372,#373,.T.);
#315=EDGE_CURVE('',#374,#372,#375,.T.);
#316=EDGE_CURVE('',#355,#374,#376,.T.);
#317=EDGE_CURVE('',#372,#377,#378,.T.);
#318=EDGE_CURVE('',#379,#377,#380,.T.);
#319=EDGE_CURVE('',#374,#379,#381,.T.);
#320=EDGE_CURVE('',#342,#339,#382,.T.);
#321=EDGE_CURVE('',#377,#361,#383,.T.);
#322=EDGE_CURVE('',#379,#366,#384,.T.);
#323=EDGE_CURVE('',#326,#329,#385,.T.);
#324=EDGE_CURVE('',#344,#340,#386,.T.);
#325=EDGE_CURVE('',#327,#331,#387,.T.);
#326=VERTEX_POINT('',#388);
#327=VERTEX_POINT('',#389);
#328=LINE('',#390,#391);
#329=VERTEX_POINT('',#392);
#330=CIRCLE('',#393,5.2);
#331=VERTEX_POINT('',#394);
#332=LINE('',#395,#396);
#333=CIRCLE('',#397,2.75);
#334=VERTEX_POINT('',#398);
#335=LINE('',#399,#400);
#336=VERTEX_POINT('',#401);
#337=LINE('',#402,#403);
#338=CIRCLE('',#404,2.75);
#339=VERTEX_POINT('',#405);
#340=VERTEX_POINT('',#406);
#341=LINE('',#407,#408);
#342=VERTEX_POINT('',#409);
#343=CIRCLE('',#410,5.2);
#344=VERTEX_POINT('',#411);
#345=LINE('',#412,#413);
#346=CIRCLE('',#414,2.75);
#347=VERTEX_POINT('',#415);
#348=LINE('',#416,#417);
#349=VERTEX_POINT('',#418);
#350=LINE('',#419,#420);
#351=CIRCLE('',#421,2.75);
#352=VERTEX_POINT('',#422);
#353=VERTEX_POINT('',#423);
#354=LINE('',#424,#425);
#355=VERTEX_POINT('',#426);
#356=LINE('',#427,#428);
#357=VERTEX_POINT('',#429);
#358=LINE('',#430,#431);
#359=LINE('',#432,#433);
#360=CIRCLE('',#434,2.75);
#361=VERTEX_POINT('',#435);
#362=VERTEX_POINT('',#436);
#363=LINE('',#437,#438);
#364=VERTEX_POINT('',#439);
#365=LINE('',#440,#441);
#366=VERTEX_POINT('',#442);
#367=LINE('',#443,#444);
#368=LINE('',#445,#446);
#369=LINE('',#447,#448);
#370=LINE('',#449,#450);
#371=CIRCLE('',#451,2.75);
#372=VERTEX_POINT('',#452);
#373=LINE('',#453,#454);
#374=VERTEX_POINT('',#455);
#375=LINE('',#456,#457);
#376=LINE('',#458,#459);
#377=VERTEX_POINT('',#460);
#378=LINE('',#461,#462);
#379=VERTEX_POINT('',#463);
#380=LINE('',#464,#465);
#381=LINE('',#466,#467);
#382=CIRCLE('',#468,5.2);
#383=LINE('',#469,#470);
#384=LINE('',#471,#472);
#385=CIRCLE('',#473,5.2);
#386=CIRCLE('',#474,2.75);
#387=CIRCLE('',#475,2.75);
#388=CARTESIAN_POINT('',(3.0,10.0,5.2));
#389=CARTESIAN_POINT('',(0.549999999999995,10.0,2.75));
#390=CARTESIAN_POINT('',(3.0,10.0,5.2));
#391=VECTOR('',#476,1.0);
#392=CARTESIAN_POINT('',(3.0,10.0,-5.2));
#393=AXIS2_PLACEMENT_3D('',#477,#478,#479);
#394=CARTESIAN_POINT('',(0.549999999999995,10.0,-2.75));
#395=CARTESIAN_POINT('',(3.0,10.0,-5.2));
#396=VECTOR('',#480,1.0);
#397=AXIS2_PLACEMENT_3D('',#481,#482,#483);
#398=CARTESIAN_POINT('',(-2.22044604925031E-15,10.0,2.75));
#399=CARTESIAN_POINT('',(0.274999999999996,10.0,2.75));
#400=VECTOR('',#484,1.0);
#401=CARTESIAN_POINT('',(-2.22044604925031E-15,10.0,-2.75));
#402=CARTESIAN_POINT('',(0.274999999999996,10.0,-2.75));
#403=VECTOR('',#485,1.0);
#404=AXIS2_PLACEMENT_3D('',#486,#487,#488);
#405=CARTESIAN_POINT('',(10.0,3.0,5.2));
#406=CARTESIAN_POINT('',(10.0,0.549999999999997,2.75));
#407=CARTESIAN_POINT('',(10.0,3.0,5.2));
#408=VECTOR('',#489,1.0);
#409=CARTESIAN_POINT('',(10.0,3.0,-5.2));
#410=AXIS2_PLACEMENT_3D('',#490,#491,#492);
#411=CARTESIAN_POINT('',(10.0,0.549999999999997,-2.75));
#412=CARTESIAN_POINT('',(10.0,3.0,-5.2));
#413=VECTOR('',#493,1.0);
#414=AXIS2_PLACEMENT_3D('',#494,#495,#496);
#415=CARTESIAN_POINT('',(10.0,0.0,2.75));
#416=CARTESIAN_POINT('',(10.0,0.274999999999999,2.75));
#417=VECTOR('',#497,1.0);
#418=CARTESIAN_POINT('',(10.0,0.0,-2.75));
#419=CARTESIAN_POINT('',(10.0,0.274999999999999,-2.75));
#420=VECTOR('',#498,1.0);
#421=AXIS2_PLACEMENT_3D('',#499,#500,#501);
#422=CARTESIAN_POINT('',(0.0,0.0,-10.0));
#423=CARTESIAN_POINT('',(20.0,0.0,-10.0));
#424=CARTESIAN_POINT('',(0.0,0.0,-10.0));
#425=VECTOR('',#502,1000.0);
#426=CARTESIAN_POINT('',(20.0,0.0,10.0));
#427=CARTESIAN_POINT('',(20.0,0.0,10.0));
#428=VECTOR('',#503,1000.0);
#429=CARTESIAN_POINT('',(0.0,0.0,10.0));
#430=CARTESIAN_POINT('',(0.0,0.0,10.0));
#431=VECTOR('',#504,1000.0);
#432=CARTESIAN_POINT('',(0.0,0.0,10.0));
#433=VECTOR('',#505,1000.0);
#434=AXIS2_PLACEMENT_3D('',#506,#507,#508);
#435=CARTESIAN_POINT('',(3.0,20.0,-10.0));
#436=CARTESIAN_POINT('',(0.0,20.0,-10.0));
#437=CARTESIAN_POINT('',(0.0,20.0,-10.0));
#438=VECTOR('',#509,1000.0);
#439=CARTESIAN_POINT('',(0.0,20.0,10.0));
#440=CARTESIAN_POINT('',(0.0,20.0,10.0));
#441=VECTOR('',#510,1000.0);
#442=CARTESIAN_POINT('',(3.0,20.0,10.0));
#443=CARTESIAN_POINT('',(0.0,20.0,10.0));
#444=VECTOR('',#511,1000.0);
#445=CARTESIAN_POINT('',(3.0,20.0,10.0));
#446=VECTOR('',#512,1000.0);
#447=CARTESIAN_POINT('',(0.0,20.0,-10.0));
#448=VECTOR('',#513,1000.0);
#449=CARTESIAN_POINT('',(0.0,20.0,10.0));
#450=VECTOR('',#514,1000.0);
#451=AXIS2_PLACEMENT_3D('',#515,#516,#517);
#452=CARTESIAN_POINT('',(20.0,3.0,-10.0));
#453=CARTESIAN_POINT('',(20.0,3.0,-10.0));
#454=VECTOR('',#518,1000.0);
#455=CARTESIAN_POINT('',(20.0,3.0,10.0));
#456=CARTESIAN_POINT('',(20.0,3.0,10.0));
#457=VECTOR('',#519,1000.0);
#458=CARTESIAN_POINT('',(20.0,3.0,10.0));
#459=VECTOR('',#520,1000.0);
#460=CARTESIAN_POINT('',(3.0,3.0,-10.0));
#461=CARTESIAN_POINT('',(3.0,3.0,-10.0));
#462=VECTOR('',#521,1000.0);
#463=CARTESIAN_POINT('',(3.0,3.0,10.0));
#464=CARTESIAN_POINT('',(3.0,3.0,10.0));
#465=VECTOR('',#522,1000.0);
#466=CARTESIAN_POINT('',(3.0,3.0,10.0));
#467=VECTOR('',#523,1000.0);
#468=AXIS2_PLACEMENT_3D('',#524,#525,#526);
#469=CARTESIAN_POINT('',(3.0,20.0,-10.0));
#470=VECTOR('',#527,1000.0);
#471=CARTESIAN_POINT('',(3.0,20.0,10.0));
#472=VECTOR('',#528,1000.0);
#473=AXIS2_PLACEMENT_3D('',#529,#530,#531);
#474=AXIS2_PLACEMENT_3D('',#532,#533,#534);
#475=AXIS2_PLACEMENT_3D('',#535,#536,#537);
#476=DIRECTION('',(-0.707106781186548,-1.57009245868378E-16,-0.707106781186547));
#477=CARTESIAN_POINT('',(3.0,10.0,0.0));
#478=DIRECTION('',(-1.0,-2.22044604925031E-16,0.0));
#479=DIRECTION('',(0.0,0.0,1.0));
#480=DIRECTION('',(0.707106781186548,1.57009245868378E-16,-0.707106781186547));
#481=CARTESIAN_POINT('',(0.549999999999995,10.0,0.0));
#482=DIRECTION('',(-1.0,-2.22044604925031E-16,0.0));
#483=DIRECTION('',(0.0,0.0,1.0));
#484=DIRECTION('',(-1.0,-2.22044604925031E-16,-0.0));
#485=DIRECTION('',(1.0,2.22044604925031E-16,-0.0));
#486=CARTESIAN_POINT('',(-2.22044604925031E-15,10.0,0.0));
#487=DIRECTION('',(1.0,2.22044604925031E-16,-0.0));
#488=DIRECTION('',(0.0,0.0,1.0));
#489=DIRECTION('',(-0.0,-0.707106781186548,-0.707106781186547));
#490=CARTESIAN_POINT('',(10.0,3.0,0.0));
#491=DIRECTION('',(-0.0,1.0,0.0));
#492=DIRECTION('',(0.0,0.0,1.0));
#493=DIRECTION('',(0.0,0.707106781186548,-0.707106781186547));
#494=CARTESIAN_POINT('',(10.0,0.549999999999997,0.0));
#495=DIRECTION('',(-0.0,1.0,0.0));
#496=DIRECTION('',(0.0,0.0,1.0));
#497=DIRECTION('',(-0.0,-1.0,-0.0));
#498=DIRECTION('',(0.0,1.0,-0.0));
#499=CARTESIAN_POINT('',(10.0,0.0,0.0));
#500=DIRECTION('',(0.0,-1.0,0.0));
#501=DIRECTION('',(0.0,0.0,1.0));
#502=DIRECTION('',(1.0,0.0,0.0));
#503=DIRECTION('',(-0.0,-0.0,-1.0));
#504=DIRECTION('',(1.0,0.0,0.0));
#505=DIRECTION('',(-0.0,-0.0,-1.0));
#506=CARTESIAN_POINT('',(10.0,0.0,0.0));
#507=DIRECTION('',(0.0,-1.0,0.0));
#508=DIRECTION('',(0.0,0.0,1.0));
#509=DIRECTION('',(-1.0,-0.0,-0.0));
#510=DIRECTION('',(-0.0,-0.0,-1.0));
#511=DIRECTION('',(-1.0,-0.0,-0.0));
#512=DIRECTION('',(-0.0,-0.0,-1.0));
#513=DIRECTION('',(0.0,-1.0,0.0));
#514=DIRECTION('',(0.0,-1.0,0.0));
#515=CARTESIAN_POINT('',(-2.22044604925031E-15,10.0,0.0));
#516=DIRECTION('',(1.0,2.22044604925031E-16,-0.0));
#517=DIRECTION('',(0.0,0.0,1.0));
#518=DIRECTION('',(-0.0,1.0,-0.0));
#519=DIRECTION('',(-0.0,-0.0,-1.0));
#520=DIRECTION('',(-0.0,1.0,-0.0));
#521=DIRECTION('',(-1.0,-0.0,-0.0));
#522=DIRECTION('',(-0.0,-0.0,-1.0));
#523=DIRECTION('',(-1.0,-0.0,-0.0));
#524=CARTESIAN_POINT('',(10.0,3.0,0.0));
#525=DIRECTION('',(-0.0,1.0,0.0));
#526=DIRECTION('',(0.0,0.0,1.0));
#527=DIRECTION('',(-1.27553196763001E-16,1.0,-0.0));
#528=DIRECTION('',(-1.27553196763001E-16,1.0,-0.0));
#529=CARTESIAN_POINT('',(3.0,10.0,0.0));
#530=DIRECTION('',(-1.0,-2.22044604925031E-16,0.0));
#531=DIRECTION('',(0.0,0.0,1.0));
#532=CARTESIAN_POINT('',(10.0,0.549999999999997,0.0));
#533=DIRECTION('',(-0.0,1.0,0.0));
#534=DIRECTION('',(0.0,0.0,1.0));
#535=CARTESIAN_POINT('',(0.549999999999995,10.0,0.0));
#536=DIRECTION('',(-1.0,-2.22044604925031E-16,0.0));
#537=DIRECTION('',(0.0,0.0,1.0));
ENDSEC;
END-ISO-10303-21;
