ISO-10303-21;
HEADER;
FILE_DESCRIPTION(('STEP AP203'),'1');
FILE_NAME('fath_093v3060s.stp','2021-11-23T14:25:40',('TraceParts'),('TraceParts S.A.'),'Spatial InterOp 3D',' ',' ');
FILE_SCHEMA(('CONFIG_CONTROL_DESIGN'));
ENDSEC;
DATA;
#1=DESIGN_CONTEXT('',#27,'design');
#2=APPLICATION_PROTOCOL_DEFINITION('INTERNATIONAL STANDARD','config_control_design',1994,#27);
#3=PRODUCT_CATEGORY_RELATIONSHIP('NONE','NONE',#28,#29);
#4=DATE_AND_TIME(#30,#31);
#5=DATE_TIME_ROLE('creation_date');
#6=DATE_TIME_ROLE('classification_date');
#7=PERSON_AND_ORGANIZATION_ROLE('creator');
#8=PERSON_AND_ORGANIZATION_ROLE('design_supplier');
#9=PERSON_AND_ORGANIZATION_ROLE('classification_officer');
#10=PERSON_AND_ORGANIZATION_ROLE('design_owner');
#11=APPROVAL_PERSON_ORGANIZATION(#32,#33,#34);
#12=APPROVAL_DATE_TIME(#4,#33);
#13=CC_DESIGN_APPROVAL(#33,(#35,#36,#37));
#14=CC_DESIGN_DATE_AND_TIME_ASSIGNMENT(#4,#5,(#37));
#15=CC_DESIGN_DATE_AND_TIME_ASSIGNMENT(#4,#6,(#35));
#16=CC_DESIGN_PERSON_AND_ORGANIZATION_ASSIGNMENT(#32,#10,(#38));
#17=CC_DESIGN_PERSON_AND_ORGANIZATION_ASSIGNMENT(#32,#7,(#37));
#18=CC_DESIGN_PERSON_AND_ORGANIZATION_ASSIGNMENT(#32,#7,(#36));
#19=CC_DESIGN_PERSON_AND_ORGANIZATION_ASSIGNMENT(#32,#8,(#36));
#20=CC_DESIGN_SECURITY_CLASSIFICATION(#35,(#36));
#21=CC_DESIGN_PERSON_AND_ORGANIZATION_ASSIGNMENT(#32,#9,(#35));
#22=SHAPE_DEFINITION_REPRESENTATION(#39,#40);
#23= (GEOMETRIC_REPRESENTATION_CONTEXT(3)GLOBAL_UNCERTAINTY_ASSIGNED_CONTEXT((#43))GLOBAL_UNIT_ASSIGNED_CONTEXT((#45,#46,#47))REPRESENTATION_CONTEXT('NONE','WORKSPACE'));
#27=APPLICATION_CONTEXT('CONFIGURATION CONTROLLED 3D DESIGNS OF MECHANICAL PARTS AND ASSEMBLIES');
#28=PRODUCT_CATEGORY('part','NONE');
#29=PRODUCT_RELATED_PRODUCT_CATEGORY('detail',' ',(#38));
#30=CALENDAR_DATE(2021,23,10);
#31=LOCAL_TIME(15,25,40.0,#49);
#32=PERSON_AND_ORGANIZATION(#50,#51);
#33=APPROVAL(#52,'SOLID MODEL');
#34=APPROVAL_ROLE('APPROVED');
#35=SECURITY_CLASSIFICATION('','',#53);
#36=PRODUCT_DEFINITION_FORMATION_WITH_SPECIFIED_SOURCE(' ','NONE',#38,.NOT_KNOWN.);
#37=PRODUCT_DEFINITION('','NONE',#36,#1);
#38=PRODUCT('1','','PART--DESC',(#54));
#39=PRODUCT_DEFINITION_SHAPE('NONE','NONE',#37);
#40=ADVANCED_BREP_SHAPE_REPRESENTATION('1',(#55,#56),#23);
#43=UNCERTAINTY_MEASURE_WITH_UNIT(LENGTH_MEASURE(1.0E-06),#45,'','');
#45= (CONVERSION_BASED_UNIT('MILLIMETRE',#59)LENGTH_UNIT()NAMED_UNIT(#62));
#46= (NAMED_UNIT(#64)PLANE_ANGLE_UNIT()SI_UNIT($,.RADIAN.));
#47= (NAMED_UNIT(#64)SOLID_ANGLE_UNIT()SI_UNIT($,.STERADIAN.));
#49=COORDINATED_UNIVERSAL_TIME_OFFSET(1,0,.AHEAD.);
#50=PERSON('','UNSPECIFIED',$,$,$,$);
#51=ORGANIZATION('UNSPECIFIED','UNSPECIFIED','UNSPECIFIED');
#52=APPROVAL_STATUS('approved');
#53=SECURITY_CLASSIFICATION_LEVEL('unclassified');
#54=MECHANICAL_CONTEXT('',#27,'mechanical');
#55=MANIFOLD_SOLID_BREP('1',#70);
#56=AXIS2_PLACEMENT_3D('',#71,#72,#73);
#59=LENGTH_MEASURE_WITH_UNIT(LENGTH_MEASURE(1.0),#74);
#62=DIMENSIONAL_EXPONENTS(1.0,0.0,0.0,0.0,0.0,0.0,0.0);
#64=DIMENSIONAL_EXPONENTS(0.0,0.0,0.0,0.0,0.0,0.0,0.0);
#70=CLOSED_SHELL('',(#75,#76,#77,#78,#79,#80,#81,#82,#83,#84,#85,#86,#87,#88,#89,#90,#91,#92));
#71=CARTESIAN_POINT('',(0.0,0.0,0.0));
#72=DIRECTION('',(0.0,0.0,1.0));
#73=DIRECTION('',(1.0,0.0,0.0));
#74= (NAMED_UNIT(#62)LENGTH_UNIT()SI_UNIT(.MILLI.,.METRE.));
#75=ADVANCED_FACE('',(#94),#95,.F.);
#76=ADVANCED_FACE('',(#96),#97,.F.);
#77=ADVANCED_FACE('',(#98),#99,.F.);
#78=ADVANCED_FACE('',(#100),#101,.F.);
#79=ADVANCED_FACE('',(#102),#103,.F.);
#80=ADVANCED_FACE('',(#104),#105,.F.);
#81=ADVANCED_FACE('',(#106),#107,.F.);
#82=ADVANCED_FACE('',(#108),#109,.F.);
#83=ADVANCED_FACE('',(#110,#111,#112),#113,.F.);
#84=ADVANCED_FACE('',(#114,#115,#116),#117,.T.);
#85=ADVANCED_FACE('',(#118),#119,.F.);
#86=ADVANCED_FACE('',(#120),#121,.F.);
#87=ADVANCED_FACE('',(#122),#123,.F.);
#88=ADVANCED_FACE('',(#124),#125,.F.);
#89=ADVANCED_FACE('',(#126),#127,.T.);
#90=ADVANCED_FACE('',(#128),#129,.T.);
#91=ADVANCED_FACE('',(#130),#131,.T.);
#92=ADVANCED_FACE('',(#132),#133,.T.);
#94=FACE_OUTER_BOUND('',#134,.T.);
#95=CONICAL_SURFACE('',#135,3.3,0.785398163397453);
#96=FACE_OUTER_BOUND('',#136,.T.);
#97=CYLINDRICAL_SURFACE('',#137,3.3);
#98=FACE_OUTER_BOUND('',#138,.T.);
#99=CONICAL_SURFACE('',#139,3.3,0.785398163397453);
#100=FACE_OUTER_BOUND('',#140,.T.);
#101=CYLINDRICAL_SURFACE('',#141,3.3);
#102=FACE_OUTER_BOUND('',#142,.T.);
#103=PLANE('',#143);
#104=FACE_OUTER_BOUND('',#144,.T.);
#105=PLANE('',#145);
#106=FACE_OUTER_BOUND('',#146,.T.);
#107=PLANE('',#147);
#108=FACE_OUTER_BOUND('',#148,.T.);
#109=PLANE('',#149);
#110=FACE_OUTER_BOUND('',#150,.T.);
#111=FACE_BOUND('',#151,.T.);
#112=FACE_BOUND('',#152,.T.);
#113=PLANE('',#153);
#114=FACE_OUTER_BOUND('',#154,.T.);
#115=FACE_BOUND('',#155,.T.);
#116=FACE_BOUND('',#156,.T.);
#117=PLANE('',#157);
#118=FACE_OUTER_BOUND('',#158,.T.);
#119=CYLINDRICAL_SURFACE('',#159,3.3);
#120=FACE_OUTER_BOUND('',#160,.T.);
#121=CONICAL_SURFACE('',#161,3.3,0.785398163397453);
#122=FACE_OUTER_BOUND('',#162,.T.);
#123=CYLINDRICAL_SURFACE('',#163,3.3);
#124=FACE_OUTER_BOUND('',#164,.T.);
#125=CONICAL_SURFACE('',#165,3.3,0.785398163397453);
#126=FACE_OUTER_BOUND('',#166,.T.);
#127=CYLINDRICAL_SURFACE('',#167,3.0);
#128=FACE_OUTER_BOUND('',#168,.T.);
#129=CYLINDRICAL_SURFACE('',#169,3.0);
#130=FACE_OUTER_BOUND('',#170,.T.);
#131=CYLINDRICAL_SURFACE('',#171,3.0);
#132=FACE_OUTER_BOUND('',#172,.T.);
#133=CYLINDRICAL_SURFACE('',#173,3.0);
#134=EDGE_LOOP('',(#174,#175,#176,#177));
#135=AXIS2_PLACEMENT_3D('',#178,#179,#180);
#136=EDGE_LOOP('',(#181,#182,#183,#184));
#137=AXIS2_PLACEMENT_3D('',#185,#186,#187);
#138=EDGE_LOOP('',(#188,#189,#190,#191));
#139=AXIS2_PLACEMENT_3D('',#192,#193,#194);
#140=EDGE_LOOP('',(#195,#196,#197,#198));
#141=AXIS2_PLACEMENT_3D('',#199,#200,#201);
#142=EDGE_LOOP('',(#202,#203,#204,#205));
#143=AXIS2_PLACEMENT_3D('',#206,#207,#208);
#144=EDGE_LOOP('',(#209,#210,#211,#212));
#145=AXIS2_PLACEMENT_3D('',#213,#214,#215);
#146=EDGE_LOOP('',(#216,#217,#218,#219));
#147=AXIS2_PLACEMENT_3D('',#220,#221,#222);
#148=EDGE_LOOP('',(#223,#224,#225,#226));
#149=AXIS2_PLACEMENT_3D('',#227,#228,#229);
#150=EDGE_LOOP('',(#230,#231,#232,#233,#234,#235,#236,#237));
#151=EDGE_LOOP('',(#238,#239));
#152=EDGE_LOOP('',(#240,#241));
#153=AXIS2_PLACEMENT_3D('',#242,#243,#244);
#154=EDGE_LOOP('',(#245,#246,#247,#248,#249,#250,#251,#252));
#155=EDGE_LOOP('',(#253,#254));
#156=EDGE_LOOP('',(#255,#256));
#157=AXIS2_PLACEMENT_3D('',#257,#258,#259);
#158=EDGE_LOOP('',(#260,#261,#262,#263));
#159=AXIS2_PLACEMENT_3D('',#264,#265,#266);
#160=EDGE_LOOP('',(#267,#268,#269,#270));
#161=AXIS2_PLACEMENT_3D('',#271,#272,#273);
#162=EDGE_LOOP('',(#274,#275,#276,#277));
#163=AXIS2_PLACEMENT_3D('',#278,#279,#280);
#164=EDGE_LOOP('',(#281,#282,#283,#284));
#165=AXIS2_PLACEMENT_3D('',#285,#286,#287);
#166=EDGE_LOOP('',(#288,#289,#290,#291));
#167=AXIS2_PLACEMENT_3D('',#292,#293,#294);
#168=EDGE_LOOP('',(#295,#296,#297,#298));
#169=AXIS2_PLACEMENT_3D('',#299,#300,#301);
#170=EDGE_LOOP('',(#302,#303,#304,#305));
#171=AXIS2_PLACEMENT_3D('',#306,#307,#308);
#172=EDGE_LOOP('',(#309,#310,#311,#312));
#173=AXIS2_PLACEMENT_3D('',#313,#314,#315);
#174=ORIENTED_EDGE('',*,*,#316,.F.);
#175=ORIENTED_EDGE('',*,*,#317,.T.);
#176=ORIENTED_EDGE('',*,*,#318,.T.);
#177=ORIENTED_EDGE('',*,*,#319,.F.);
#178=CARTESIAN_POINT('',(15.0,0.0,0.10000000000003));
#179=DIRECTION('',(0.0,-0.0,1.0));
#180=DIRECTION('',(-1.0,0.0,0.0));
#181=ORIENTED_EDGE('',*,*,#316,.T.);
#182=ORIENTED_EDGE('',*,*,#320,.T.);
#183=ORIENTED_EDGE('',*,*,#321,.F.);
#184=ORIENTED_EDGE('',*,*,#322,.F.);
#185=CARTESIAN_POINT('',(15.0,0.0,-1.60373181623508));
#186=DIRECTION('',(-0.0,0.0,1.0));
#187=DIRECTION('',(1.0,0.0,0.0));
#188=ORIENTED_EDGE('',*,*,#323,.T.);
#189=ORIENTED_EDGE('',*,*,#324,.T.);
#190=ORIENTED_EDGE('',*,*,#325,.F.);
#191=ORIENTED_EDGE('',*,*,#326,.F.);
#192=CARTESIAN_POINT('',(-15.0,0.0,0.10000000000003));
#193=DIRECTION('',(-0.0,-0.0,1.0));
#194=DIRECTION('',(1.0,0.0,0.0));
#195=ORIENTED_EDGE('',*,*,#323,.F.);
#196=ORIENTED_EDGE('',*,*,#327,.T.);
#197=ORIENTED_EDGE('',*,*,#328,.T.);
#198=ORIENTED_EDGE('',*,*,#329,.F.);
#199=CARTESIAN_POINT('',(-15.0,0.0,-1.60373181623508));
#200=DIRECTION('',(0.0,0.0,1.0));
#201=DIRECTION('',(-1.0,0.0,0.0));
#202=ORIENTED_EDGE('',*,*,#330,.F.);
#203=ORIENTED_EDGE('',*,*,#331,.T.);
#204=ORIENTED_EDGE('',*,*,#332,.T.);
#205=ORIENTED_EDGE('',*,*,#333,.T.);
#206=CARTESIAN_POINT('',(-30.0,-15.0,3.0));
#207=DIRECTION('',(1.0,0.0,0.0));
#208=DIRECTION('',(0.0,1.0,0.0));
#209=ORIENTED_EDGE('',*,*,#334,.F.);
#210=ORIENTED_EDGE('',*,*,#335,.T.);
#211=ORIENTED_EDGE('',*,*,#336,.T.);
#212=ORIENTED_EDGE('',*,*,#337,.T.);
#213=CARTESIAN_POINT('',(-30.0,-15.0,3.0));
#214=DIRECTION('',(-0.0,1.0,0.0));
#215=DIRECTION('',(1.0,0.0,0.0));
#216=ORIENTED_EDGE('',*,*,#338,.F.);
#217=ORIENTED_EDGE('',*,*,#339,.T.);
#218=ORIENTED_EDGE('',*,*,#340,.T.);
#219=ORIENTED_EDGE('',*,*,#341,.T.);
#220=CARTESIAN_POINT('',(30.0,-15.0,3.0));
#221=DIRECTION('',(-1.0,0.0,0.0));
#222=DIRECTION('',(0.0,0.0,1.0));
#223=ORIENTED_EDGE('',*,*,#342,.T.);
#224=ORIENTED_EDGE('',*,*,#343,.T.);
#225=ORIENTED_EDGE('',*,*,#344,.F.);
#226=ORIENTED_EDGE('',*,*,#345,.T.);
#227=CARTESIAN_POINT('',(-30.0,15.0,3.0));
#228=DIRECTION('',(0.0,-1.0,0.0));
#229=DIRECTION('',(0.0,0.0,-1.0));
#230=ORIENTED_EDGE('',*,*,#344,.T.);
#231=ORIENTED_EDGE('',*,*,#346,.T.);
#232=ORIENTED_EDGE('',*,*,#330,.T.);
#233=ORIENTED_EDGE('',*,*,#347,.T.);
#234=ORIENTED_EDGE('',*,*,#334,.T.);
#235=ORIENTED_EDGE('',*,*,#348,.T.);
#236=ORIENTED_EDGE('',*,*,#338,.T.);
#237=ORIENTED_EDGE('',*,*,#349,.T.);
#238=ORIENTED_EDGE('',*,*,#350,.F.);
#239=ORIENTED_EDGE('',*,*,#318,.F.);
#240=ORIENTED_EDGE('',*,*,#325,.T.);
#241=ORIENTED_EDGE('',*,*,#351,.T.);
#242=CARTESIAN_POINT('',(-30.0,15.0,3.0));
#243=DIRECTION('',(0.0,0.0,-1.0));
#244=DIRECTION('',(0.0,-1.0,0.0));
#245=ORIENTED_EDGE('',*,*,#332,.F.);
#246=ORIENTED_EDGE('',*,*,#352,.T.);
#247=ORIENTED_EDGE('',*,*,#342,.F.);
#248=ORIENTED_EDGE('',*,*,#353,.T.);
#249=ORIENTED_EDGE('',*,*,#340,.F.);
#250=ORIENTED_EDGE('',*,*,#354,.T.);
#251=ORIENTED_EDGE('',*,*,#336,.F.);
#252=ORIENTED_EDGE('',*,*,#355,.T.);
#253=ORIENTED_EDGE('',*,*,#321,.T.);
#254=ORIENTED_EDGE('',*,*,#356,.T.);
#255=ORIENTED_EDGE('',*,*,#357,.F.);
#256=ORIENTED_EDGE('',*,*,#328,.F.);
#257=CARTESIAN_POINT('',(-30.0,15.0,0.0));
#258=DIRECTION('',(0.0,0.0,-1.0));
#259=DIRECTION('',(0.0,-1.0,0.0));
#260=ORIENTED_EDGE('',*,*,#327,.F.);
#261=ORIENTED_EDGE('',*,*,#358,.F.);
#262=ORIENTED_EDGE('',*,*,#329,.T.);
#263=ORIENTED_EDGE('',*,*,#357,.T.);
#264=CARTESIAN_POINT('',(-15.0,0.0,-1.60373181623508));
#265=DIRECTION('',(0.0,0.0,1.0));
#266=DIRECTION('',(-1.0,0.0,0.0));
#267=ORIENTED_EDGE('',*,*,#324,.F.);
#268=ORIENTED_EDGE('',*,*,#358,.T.);
#269=ORIENTED_EDGE('',*,*,#326,.T.);
#270=ORIENTED_EDGE('',*,*,#351,.F.);
#271=CARTESIAN_POINT('',(-15.0,0.0,0.10000000000003));
#272=DIRECTION('',(-0.0,-0.0,1.0));
#273=DIRECTION('',(1.0,0.0,0.0));
#274=ORIENTED_EDGE('',*,*,#320,.F.);
#275=ORIENTED_EDGE('',*,*,#359,.T.);
#276=ORIENTED_EDGE('',*,*,#322,.T.);
#277=ORIENTED_EDGE('',*,*,#356,.F.);
#278=CARTESIAN_POINT('',(15.0,0.0,-1.60373181623508));
#279=DIRECTION('',(-0.0,0.0,1.0));
#280=DIRECTION('',(1.0,0.0,0.0));
#281=ORIENTED_EDGE('',*,*,#317,.F.);
#282=ORIENTED_EDGE('',*,*,#359,.F.);
#283=ORIENTED_EDGE('',*,*,#319,.T.);
#284=ORIENTED_EDGE('',*,*,#350,.T.);
#285=CARTESIAN_POINT('',(15.0,0.0,0.10000000000003));
#286=DIRECTION('',(0.0,-0.0,1.0));
#287=DIRECTION('',(-1.0,0.0,0.0));
#288=ORIENTED_EDGE('',*,*,#346,.F.);
#289=ORIENTED_EDGE('',*,*,#343,.F.);
#290=ORIENTED_EDGE('',*,*,#352,.F.);
#291=ORIENTED_EDGE('',*,*,#331,.F.);
#292=CARTESIAN_POINT('',(-27.0,12.0,3.0));
#293=DIRECTION('',(0.0,0.0,1.0));
#294=DIRECTION('',(-1.0,0.0,0.0));
#295=ORIENTED_EDGE('',*,*,#347,.F.);
#296=ORIENTED_EDGE('',*,*,#333,.F.);
#297=ORIENTED_EDGE('',*,*,#355,.F.);
#298=ORIENTED_EDGE('',*,*,#335,.F.);
#299=CARTESIAN_POINT('',(-27.0,-12.0,3.0));
#300=DIRECTION('',(0.0,0.0,1.0));
#301=DIRECTION('',(-1.0,0.0,0.0));
#302=ORIENTED_EDGE('',*,*,#348,.F.);
#303=ORIENTED_EDGE('',*,*,#337,.F.);
#304=ORIENTED_EDGE('',*,*,#354,.F.);
#305=ORIENTED_EDGE('',*,*,#339,.F.);
#306=CARTESIAN_POINT('',(27.0,-12.0,3.0));
#307=DIRECTION('',(0.0,0.0,1.0));
#308=DIRECTION('',(-1.0,0.0,0.0));
#309=ORIENTED_EDGE('',*,*,#349,.F.);
#310=ORIENTED_EDGE('',*,*,#341,.F.);
#311=ORIENTED_EDGE('',*,*,#353,.F.);
#312=ORIENTED_EDGE('',*,*,#345,.F.);
#313=CARTESIAN_POINT('',(27.0,12.0,3.0));
#314=DIRECTION('',(0.0,0.0,1.0));
#315=DIRECTION('',(-1.0,0.0,0.0));
#316=EDGE_CURVE('',#360,#361,#362,.T.);
#317=EDGE_CURVE('',#360,#363,#364,.T.);
#318=EDGE_CURVE('',#363,#365,#366,.T.);
#319=EDGE_CURVE('',#361,#365,#367,.T.);
#320=EDGE_CURVE('',#361,#368,#369,.T.);
#321=EDGE_CURVE('',#370,#368,#371,.T.);
#322=EDGE_CURVE('',#360,#370,#372,.T.);
#323=EDGE_CURVE('',#373,#374,#375,.T.);
#324=EDGE_CURVE('',#374,#376,#377,.T.);
#325=EDGE_CURVE('',#378,#376,#379,.T.);
#326=EDGE_CURVE('',#373,#378,#380,.T.);
#327=EDGE_CURVE('',#373,#381,#382,.T.);
#328=EDGE_CURVE('',#381,#383,#384,.T.);
#329=EDGE_CURVE('',#374,#383,#385,.T.);
#330=EDGE_CURVE('',#386,#387,#388,.T.);
#331=EDGE_CURVE('',#386,#389,#390,.T.);
#332=EDGE_CURVE('',#389,#391,#392,.T.);
#333=EDGE_CURVE('',#391,#387,#393,.T.);
#334=EDGE_CURVE('',#394,#395,#396,.T.);
#335=EDGE_CURVE('',#394,#397,#398,.T.);
#336=EDGE_CURVE('',#397,#399,#400,.T.);
#337=EDGE_CURVE('',#399,#395,#401,.T.);
#338=EDGE_CURVE('',#402,#403,#404,.T.);
#339=EDGE_CURVE('',#402,#405,#406,.T.);
#340=EDGE_CURVE('',#405,#407,#408,.T.);
#341=EDGE_CURVE('',#407,#403,#409,.T.);
#342=EDGE_CURVE('',#410,#411,#412,.T.);
#343=EDGE_CURVE('',#411,#413,#414,.T.);
#344=EDGE_CURVE('',#415,#413,#416,.T.);
#345=EDGE_CURVE('',#415,#410,#417,.T.);
#346=EDGE_CURVE('',#413,#386,#418,.T.);
#347=EDGE_CURVE('',#387,#394,#419,.T.);
#348=EDGE_CURVE('',#395,#402,#420,.T.);
#349=EDGE_CURVE('',#403,#415,#421,.T.);
#350=EDGE_CURVE('',#365,#363,#422,.T.);
#351=EDGE_CURVE('',#376,#378,#423,.T.);
#352=EDGE_CURVE('',#389,#411,#424,.T.);
#353=EDGE_CURVE('',#410,#407,#425,.T.);
#354=EDGE_CURVE('',#405,#399,#426,.T.);
#355=EDGE_CURVE('',#397,#391,#427,.T.);
#356=EDGE_CURVE('',#368,#370,#428,.T.);
#357=EDGE_CURVE('',#383,#381,#429,.T.);
#358=EDGE_CURVE('',#374,#373,#430,.T.);
#359=EDGE_CURVE('',#361,#360,#431,.T.);
#360=VERTEX_POINT('',#432);
#361=VERTEX_POINT('',#433);
#362=CIRCLE('',#434,3.3);
#363=VERTEX_POINT('',#435);
#364=LINE('',#436,#437);
#365=VERTEX_POINT('',#438);
#366=CIRCLE('',#439,6.2);
#367=LINE('',#440,#441);
#368=VERTEX_POINT('',#442);
#369=LINE('',#443,#444);
#370=VERTEX_POINT('',#445);
#371=CIRCLE('',#446,3.3);
#372=LINE('',#447,#448);
#373=VERTEX_POINT('',#449);
#374=VERTEX_POINT('',#450);
#375=CIRCLE('',#451,3.3);
#376=VERTEX_POINT('',#452);
#377=LINE('',#453,#454);
#378=VERTEX_POINT('',#455);
#379=CIRCLE('',#456,6.2);
#380=LINE('',#457,#458);
#381=VERTEX_POINT('',#459);
#382=LINE('',#460,#461);
#383=VERTEX_POINT('',#462);
#384=CIRCLE('',#463,3.3);
#385=LINE('',#464,#465);
#386=VERTEX_POINT('',#466);
#387=VERTEX_POINT('',#467);
#388=LINE('',#468,#469);
#389=VERTEX_POINT('',#470);
#390=LINE('',#471,#472);
#391=VERTEX_POINT('',#473);
#392=LINE('',#474,#475);
#393=LINE('',#476,#477);
#394=VERTEX_POINT('',#478);
#395=VERTEX_POINT('',#479);
#396=LINE('',#480,#481);
#397=VERTEX_POINT('',#482);
#398=LINE('',#483,#484);
#399=VERTEX_POINT('',#485);
#400=LINE('',#486,#487);
#401=LINE('',#488,#489);
#402=VERTEX_POINT('',#490);
#403=VERTEX_POINT('',#491);
#404=LINE('',#492,#493);
#405=VERTEX_POINT('',#494);
#406=LINE('',#495,#496);
#407=VERTEX_POINT('',#497);
#408=LINE('',#498,#499);
#409=LINE('',#500,#501);
#410=VERTEX_POINT('',#502);
#411=VERTEX_POINT('',#503);
#412=LINE('',#504,#505);
#413=VERTEX_POINT('',#506);
#414=LINE('',#507,#508);
#415=VERTEX_POINT('',#509);
#416=LINE('',#510,#511);
#417=LINE('',#512,#513);
#418=CIRCLE('',#514,3.0);
#419=CIRCLE('',#515,3.0);
#420=CIRCLE('',#516,3.0);
#421=CIRCLE('',#517,3.0);
#422=CIRCLE('',#518,6.2);
#423=CIRCLE('',#519,6.2);
#424=CIRCLE('',#520,3.0);
#425=CIRCLE('',#521,3.0);
#426=CIRCLE('',#522,3.0);
#427=CIRCLE('',#523,3.0);
#428=CIRCLE('',#524,3.3);
#429=CIRCLE('',#525,3.3);
#430=CIRCLE('',#526,3.3);
#431=CIRCLE('',#527,3.3);
#432=CARTESIAN_POINT('',(18.3,0.0,0.10000000000003));
#433=CARTESIAN_POINT('',(11.7,-4.04133443718627E-16,0.10000000000003));
#434=AXIS2_PLACEMENT_3D('',#528,#529,#530);
#435=CARTESIAN_POINT('',(21.2,-7.59281015471359E-16,3.0));
#436=CARTESIAN_POINT('',(18.3,-4.04133443718627E-16,0.10000000000003));
#437=VECTOR('',#531,1000.0);
#438=CARTESIAN_POINT('',(8.8,0.0,3.0));
#439=AXIS2_PLACEMENT_3D('',#532,#533,#534);
#440=CARTESIAN_POINT('',(11.7,0.0,0.10000000000003));
#441=VECTOR('',#535,1000.0);
#442=CARTESIAN_POINT('',(11.7,-4.04133443718627E-16,0.0));
#443=CARTESIAN_POINT('',(11.7,-4.04133443718627E-16,-1.60373181623508));
#444=VECTOR('',#536,1000.0);
#445=CARTESIAN_POINT('',(18.3,0.0,0.0));
#446=AXIS2_PLACEMENT_3D('',#537,#538,#539);
#447=CARTESIAN_POINT('',(18.3,0.0,-1.60373181623508));
#448=VECTOR('',#540,1000.0);
#449=CARTESIAN_POINT('',(-11.7,4.04133443718627E-16,0.10000000000003));
#450=CARTESIAN_POINT('',(-18.3,0.0,0.10000000000003));
#451=AXIS2_PLACEMENT_3D('',#541,#542,#543);
#452=CARTESIAN_POINT('',(-21.2,7.59281015471359E-16,3.0));
#453=CARTESIAN_POINT('',(-18.3,4.04133443718627E-16,0.10000000000003));
#454=VECTOR('',#544,1000.0);
#455=CARTESIAN_POINT('',(-8.8,0.0,3.0));
#456=AXIS2_PLACEMENT_3D('',#545,#546,#547);
#457=CARTESIAN_POINT('',(-11.7,0.0,0.10000000000003));
#458=VECTOR('',#548,1000.0);
#459=CARTESIAN_POINT('',(-11.7,4.04133443718627E-16,0.0));
#460=CARTESIAN_POINT('',(-11.7,4.04133443718627E-16,-1.60373181623508));
#461=VECTOR('',#549,1000.0);
#462=CARTESIAN_POINT('',(-18.3,0.0,0.0));
#463=AXIS2_PLACEMENT_3D('',#550,#551,#552);
#464=CARTESIAN_POINT('',(-18.3,0.0,-1.60373181623508));
#465=VECTOR('',#553,1000.0);
#466=CARTESIAN_POINT('',(-30.0,12.0,3.0));
#467=CARTESIAN_POINT('',(-30.0,-12.0,3.0));
#468=CARTESIAN_POINT('',(-30.0,-15.0,3.0));
#469=VECTOR('',#554,1000.0);
#470=CARTESIAN_POINT('',(-30.0,12.0,0.0));
#471=CARTESIAN_POINT('',(-30.0,12.0,3.0));
#472=VECTOR('',#555,1000.0);
#473=CARTESIAN_POINT('',(-30.0,-12.0,0.0));
#474=CARTESIAN_POINT('',(-30.0,-15.0,0.0));
#475=VECTOR('',#556,1000.0);
#476=CARTESIAN_POINT('',(-30.0,-12.0,3.0));
#477=VECTOR('',#557,1000.0);
#478=CARTESIAN_POINT('',(-27.0,-15.0,3.0));
#479=CARTESIAN_POINT('',(27.0,-15.0,3.0));
#480=CARTESIAN_POINT('',(-30.0,-15.0,3.0));
#481=VECTOR('',#558,1000.0);
#482=CARTESIAN_POINT('',(-27.0,-15.0,0.0));
#483=CARTESIAN_POINT('',(-27.0,-15.0,3.0));
#484=VECTOR('',#559,1000.0);
#485=CARTESIAN_POINT('',(27.0,-15.0,0.0));
#486=CARTESIAN_POINT('',(-30.0,-15.0,0.0));
#487=VECTOR('',#560,1000.0);
#488=CARTESIAN_POINT('',(27.0,-15.0,3.0));
#489=VECTOR('',#561,1000.0);
#490=CARTESIAN_POINT('',(30.0,-12.0,3.0));
#491=CARTESIAN_POINT('',(30.0,12.0,3.0));
#492=CARTESIAN_POINT('',(30.0,-15.0,3.0));
#493=VECTOR('',#562,1000.0);
#494=CARTESIAN_POINT('',(30.0,-12.0,0.0));
#495=CARTESIAN_POINT('',(30.0,-12.0,3.0));
#496=VECTOR('',#563,1000.0);
#497=CARTESIAN_POINT('',(30.0,12.0,0.0));
#498=CARTESIAN_POINT('',(30.0,-15.0,0.0));
#499=VECTOR('',#564,1000.0);
#500=CARTESIAN_POINT('',(30.0,12.0,3.0));
#501=VECTOR('',#565,1000.0);
#502=CARTESIAN_POINT('',(27.0,15.0,0.0));
#503=CARTESIAN_POINT('',(-27.0,15.0,0.0));
#504=CARTESIAN_POINT('',(-30.0,15.0,0.0));
#505=VECTOR('',#566,1000.0);
#506=CARTESIAN_POINT('',(-27.0,15.0,3.0));
#507=CARTESIAN_POINT('',(-27.0,15.0,3.0));
#508=VECTOR('',#567,1000.0);
#509=CARTESIAN_POINT('',(27.0,15.0,3.0));
#510=CARTESIAN_POINT('',(-30.0,15.0,3.0));
#511=VECTOR('',#568,1000.0);
#512=CARTESIAN_POINT('',(27.0,15.0,3.0));
#513=VECTOR('',#569,1000.0);
#514=AXIS2_PLACEMENT_3D('',#570,#571,#572);
#515=AXIS2_PLACEMENT_3D('',#573,#574,#575);
#516=AXIS2_PLACEMENT_3D('',#576,#577,#578);
#517=AXIS2_PLACEMENT_3D('',#579,#580,#581);
#518=AXIS2_PLACEMENT_3D('',#582,#583,#584);
#519=AXIS2_PLACEMENT_3D('',#585,#586,#587);
#520=AXIS2_PLACEMENT_3D('',#588,#589,#590);
#521=AXIS2_PLACEMENT_3D('',#591,#592,#593);
#522=AXIS2_PLACEMENT_3D('',#594,#595,#596);
#523=AXIS2_PLACEMENT_3D('',#597,#598,#599);
#524=AXIS2_PLACEMENT_3D('',#600,#601,#602);
#525=AXIS2_PLACEMENT_3D('',#603,#604,#605);
#526=AXIS2_PLACEMENT_3D('',#606,#607,#608);
#527=AXIS2_PLACEMENT_3D('',#609,#610,#611);
#528=CARTESIAN_POINT('',(15.0,0.0,0.10000000000003));
#529=DIRECTION('',(-0.0,0.0,1.0));
#530=DIRECTION('',(1.0,0.0,0.0));
#531=DIRECTION('',(0.707106781186551,-8.65956056235498E-17,0.707106781186544));
#532=CARTESIAN_POINT('',(15.0,0.0,3.0));
#533=DIRECTION('',(-0.0,0.0,1.0));
#534=DIRECTION('',(1.0,0.0,0.0));
#535=DIRECTION('',(-0.707106781186551,0.0,0.707106781186544));
#536=DIRECTION('',(0.0,-0.0,-1.0));
#537=CARTESIAN_POINT('',(15.0,0.0,0.0));
#538=DIRECTION('',(-0.0,0.0,1.0));
#539=DIRECTION('',(1.0,0.0,0.0));
#540=DIRECTION('',(0.0,-0.0,-1.0));
#541=CARTESIAN_POINT('',(-15.0,0.0,0.10000000000003));
#542=DIRECTION('',(0.0,0.0,-1.0));
#543=DIRECTION('',(-1.0,0.0,0.0));
#544=DIRECTION('',(-0.707106781186551,8.65956056235498E-17,0.707106781186544));
#545=CARTESIAN_POINT('',(-15.0,0.0,3.0));
#546=DIRECTION('',(0.0,0.0,-1.0));
#547=DIRECTION('',(-1.0,0.0,0.0));
#548=DIRECTION('',(0.707106781186551,0.0,0.707106781186544));
#549=DIRECTION('',(-0.0,-0.0,-1.0));
#550=CARTESIAN_POINT('',(-15.0,0.0,0.0));
#551=DIRECTION('',(0.0,0.0,-1.0));
#552=DIRECTION('',(-1.0,0.0,0.0));
#553=DIRECTION('',(-0.0,-0.0,-1.0));
#554=DIRECTION('',(-0.0,-1.0,-0.0));
#555=DIRECTION('',(0.0,0.0,-1.0));
#556=DIRECTION('',(-0.0,-1.0,-0.0));
#557=DIRECTION('',(-0.0,-0.0,1.0));
#558=DIRECTION('',(1.0,0.0,0.0));
#559=DIRECTION('',(0.0,0.0,-1.0));
#560=DIRECTION('',(1.0,0.0,0.0));
#561=DIRECTION('',(-0.0,-0.0,1.0));
#562=DIRECTION('',(0.0,1.0,0.0));
#563=DIRECTION('',(0.0,0.0,-1.0));
#564=DIRECTION('',(0.0,1.0,0.0));
#565=DIRECTION('',(-0.0,-0.0,1.0));
#566=DIRECTION('',(-1.0,-0.0,-0.0));
#567=DIRECTION('',(-0.0,-0.0,1.0));
#568=DIRECTION('',(-1.0,-0.0,-0.0));
#569=DIRECTION('',(0.0,0.0,-1.0));
#570=CARTESIAN_POINT('',(-27.0,12.0,3.0));
#571=DIRECTION('',(0.0,0.0,1.0));
#572=DIRECTION('',(-1.0,0.0,0.0));
#573=CARTESIAN_POINT('',(-27.0,-12.0,3.0));
#574=DIRECTION('',(0.0,0.0,1.0));
#575=DIRECTION('',(-1.0,0.0,0.0));
#576=CARTESIAN_POINT('',(27.0,-12.0,3.0));
#577=DIRECTION('',(0.0,0.0,1.0));
#578=DIRECTION('',(-1.0,0.0,0.0));
#579=CARTESIAN_POINT('',(27.0,12.0,3.0));
#580=DIRECTION('',(0.0,0.0,1.0));
#581=DIRECTION('',(-1.0,0.0,0.0));
#582=CARTESIAN_POINT('',(15.0,0.0,3.0));
#583=DIRECTION('',(-0.0,0.0,1.0));
#584=DIRECTION('',(1.0,0.0,0.0));
#585=CARTESIAN_POINT('',(-15.0,0.0,3.0));
#586=DIRECTION('',(0.0,0.0,-1.0));
#587=DIRECTION('',(-1.0,0.0,0.0));
#588=CARTESIAN_POINT('',(-27.0,12.0,0.0));
#589=DIRECTION('',(0.0,0.0,-1.0));
#590=DIRECTION('',(-1.0,0.0,0.0));
#591=CARTESIAN_POINT('',(27.0,12.0,0.0));
#592=DIRECTION('',(0.0,0.0,-1.0));
#593=DIRECTION('',(-1.0,0.0,0.0));
#594=CARTESIAN_POINT('',(27.0,-12.0,0.0));
#595=DIRECTION('',(0.0,0.0,-1.0));
#596=DIRECTION('',(-1.0,0.0,0.0));
#597=CARTESIAN_POINT('',(-27.0,-12.0,0.0));
#598=DIRECTION('',(0.0,0.0,-1.0));
#599=DIRECTION('',(-1.0,0.0,0.0));
#600=CARTESIAN_POINT('',(15.0,0.0,0.0));
#601=DIRECTION('',(-0.0,0.0,1.0));
#602=DIRECTION('',(1.0,0.0,0.0));
#603=CARTESIAN_POINT('',(-15.0,0.0,0.0));
#604=DIRECTION('',(0.0,0.0,-1.0));
#605=DIRECTION('',(-1.0,0.0,0.0));
#606=CARTESIAN_POINT('',(-15.0,0.0,0.10000000000003));
#607=DIRECTION('',(0.0,0.0,-1.0));
#608=DIRECTION('',(-1.0,0.0,0.0));
#609=CARTESIAN_POINT('',(15.0,0.0,0.10000000000003));
#610=DIRECTION('',(-0.0,0.0,1.0));
#611=DIRECTION('',(1.0,0.0,0.0));
ENDSEC;
END-ISO-10303-21;
