ISO-10303-21;
HEADER;
FILE_DESCRIPTION( ( 'STEP AP203' ), '1' );
FILE_NAME( 'p:/temp/worker_338/temp/exporttempdir_4372_22_dzB7t/format_0/098D030KG.stp', '2020-11-26T09:51:40', ( 'License CC BY-ND 4.0' ), ( 'CADENAS' ), ' ', 'PARTsolutions', ' ' );
FILE_SCHEMA( ( 'CONFIG_CONTROL_DESIGN' ) );
ENDSEC;
DATA;
#1 = DESIGN_CONTEXT( '', #27, 'design' );
#2 = APPLICATION_PROTOCOL_DEFINITION( 'international standard', 'config_control_design', 1994, #27 );
#3 = PRODUCT_CATEGORY_RELATIONSHIP( 'NONE', 'NONE', #28, #29 );
#4 = DATE_AND_TIME( #30, #31 );
#5 = DATE_TIME_ROLE( 'creation_date' );
#6 = DATE_TIME_ROLE( 'classification_date' );
#7 = PERSON_AND_ORGANIZATION_ROLE( 'creator' );
#8 = PERSON_AND_ORGANIZATION_ROLE( 'design_supplier' );
#9 = PERSON_AND_ORGANIZATION_ROLE( 'classification_officer' );
#10 = PERSON_AND_ORGANIZATION_ROLE( 'design_owner' );
#11 = APPROVAL_PERSON_ORGANIZATION( #32, #33, #34 );
#12 = APPROVAL_DATE_TIME( #4, #33 );
#13 = CC_DESIGN_APPROVAL( #33, ( #35, #36, #37 ) );
#14 = CC_DESIGN_DATE_AND_TIME_ASSIGNMENT( #4, #5, ( #37 ) );
#15 = CC_DESIGN_DATE_AND_TIME_ASSIGNMENT( #4, #6, ( #35 ) );
#16 = CC_DESIGN_PERSON_AND_ORGANIZATION_ASSIGNMENT( #32, #10, ( #38 ) );
#17 = CC_DESIGN_PERSON_AND_ORGANIZATION_ASSIGNMENT( #32, #7, ( #37 ) );
#18 = CC_DESIGN_PERSON_AND_ORGANIZATION_ASSIGNMENT( #32, #7, ( #36 ) );
#19 = CC_DESIGN_PERSON_AND_ORGANIZATION_ASSIGNMENT( #32, #8, ( #36 ) );
#20 = CC_DESIGN_SECURITY_CLASSIFICATION( #35, ( #36 ) );
#21 = CC_DESIGN_PERSON_AND_ORGANIZATION_ASSIGNMENT( #32, #9, ( #35 ) );
#22 = SHAPE_DEFINITION_REPRESENTATION( #39, #40 );
#23 =  ( GEOMETRIC_REPRESENTATION_CONTEXT( 3 )GLOBAL_UNCERTAINTY_ASSIGNED_CONTEXT( ( #43 ) )GLOBAL_UNIT_ASSIGNED_CONTEXT( ( #45, #46, #47 ) )REPRESENTATION_CONTEXT( 'NONE', 'WORKSPACE' ) );
#27 = APPLICATION_CONTEXT( 'configuration controlled 3D designs of mechanical parts and assemblies' );
#28 = PRODUCT_CATEGORY( 'part', 'NONE' );
#29 = PRODUCT_RELATED_PRODUCT_CATEGORY( 'detail', ' ', ( #38 ) );
#30 = CALENDAR_DATE( 2020, 26, 10 );
#31 = LOCAL_TIME( 10, 51, 40.0000000000000, #49 );
#32 = PERSON_AND_ORGANIZATION( #50, #51 );
#33 = APPROVAL( #52, 'SOLID MODEL' );
#34 = APPROVAL_ROLE( 'APPROVED' );
#35 = SECURITY_CLASSIFICATION( '', '', #53 );
#36 = PRODUCT_DEFINITION_FORMATION_WITH_SPECIFIED_SOURCE( ' ', 'NONE', #38, .NOT_KNOWN. );
#37 = PRODUCT_DEFINITION( 'NONE', 'NONE', #36, #1 );
#38 = PRODUCT( '_098D030KG', '_098D030KG', 'PART-_098D030KG-DESC', ( #54 ) );
#39 = PRODUCT_DEFINITION_SHAPE( 'NONE', 'NONE', #37 );
#40 = ADVANCED_BREP_SHAPE_REPRESENTATION( '_098D030KG', ( #55, #56 ), #23 );
#43 = UNCERTAINTY_MEASURE_WITH_UNIT( LENGTH_MEASURE( 0.00100000000000000 ), #45, '', '' );
#45 =  ( CONVERSION_BASED_UNIT( 'MILLIMETRE', #59 )LENGTH_UNIT(  )NAMED_UNIT( #62 ) );
#46 =  ( NAMED_UNIT( #64 )PLANE_ANGLE_UNIT(  )SI_UNIT( $, .RADIAN. ) );
#47 =  ( NAMED_UNIT( #64 )SI_UNIT( $, .STERADIAN. )SOLID_ANGLE_UNIT(  ) );
#49 = COORDINATED_UNIVERSAL_TIME_OFFSET( 1, 0, .AHEAD. );
#50 = PERSON( '', 'UNSPECIFIED', $, $, $, $ );
#51 = ORGANIZATION( 'UNSPECIFIED', 'UNSPECIFIED', 'UNSPECIFIED' );
#52 = APPROVAL_STATUS( 'approved' );
#53 = SECURITY_CLASSIFICATION_LEVEL( 'unclassified' );
#54 = MECHANICAL_CONTEXT( '', #27, 'mechanical' );
#55 = MANIFOLD_SOLID_BREP( '_098D030KG', #70 );
#56 = AXIS2_PLACEMENT_3D( '', #71, #72, #73 );
#59 = LENGTH_MEASURE_WITH_UNIT( LENGTH_MEASURE( 1.00000000000000 ), #74 );
#62 = DIMENSIONAL_EXPONENTS( 1.00000000000000, 0.000000000000000, 0.000000000000000, 0.000000000000000, 0.000000000000000, 0.000000000000000, 0.000000000000000 );
#64 = DIMENSIONAL_EXPONENTS( 0.000000000000000, 0.000000000000000, 0.000000000000000, 0.000000000000000, 0.000000000000000, 0.000000000000000, 0.000000000000000 );
#70 = CLOSED_SHELL( '', ( #75, #76, #77, #78, #79, #80, #81, #82, #83, #84, #85, #86, #87, #88, #89, #90, #91, #92, #93, #94, #95 ) );
#71 = CARTESIAN_POINT( '', ( 0.000000000000000, 0.000000000000000, 0.000000000000000 ) );
#72 = DIRECTION( '', ( 0.000000000000000, 0.000000000000000, 1.00000000000000 ) );
#73 = DIRECTION( '', ( 1.00000000000000, 0.000000000000000, 0.000000000000000 ) );
#74 =  ( LENGTH_UNIT(  )NAMED_UNIT( #62 )SI_UNIT( .MILLI., .METRE. ) );
#75 = ADVANCED_FACE( '', ( #97, #98 ), #99, .F. );
#76 = ADVANCED_FACE( '', ( #100, #101 ), #102, .F. );
#77 = ADVANCED_FACE( '', ( #103, #104 ), #105, .T. );
#78 = ADVANCED_FACE( '', ( #106, #107 ), #108, .T. );
#79 = ADVANCED_FACE( '', ( #109, #110 ), #111, .F. );
#80 = ADVANCED_FACE( '', ( #112, #113 ), #114, .F. );
#81 = ADVANCED_FACE( '', ( #115, #116 ), #117, .T. );
#82 = ADVANCED_FACE( '', ( #118, #119 ), #120, .F. );
#83 = ADVANCED_FACE( '', ( #121, #122 ), #123, .T. );
#84 = ADVANCED_FACE( '', ( #124, #125 ), #126, .T. );
#85 = ADVANCED_FACE( '', ( #127, #128 ), #129, .T. );
#86 = ADVANCED_FACE( '', ( #130, #131 ), #132, .F. );
#87 = ADVANCED_FACE( '', ( #133, #134 ), #135, .F. );
#88 = ADVANCED_FACE( '', ( #136, #137 ), #138, .F. );
#89 = ADVANCED_FACE( '', ( #139, #140 ), #141, .F. );
#90 = ADVANCED_FACE( '', ( #142, #143 ), #144, .T. );
#91 = ADVANCED_FACE( '', ( #145, #146 ), #147, .T. );
#92 = ADVANCED_FACE( '', ( #148, #149 ), #150, .F. );
#93 = ADVANCED_FACE( '', ( #151, #152 ), #153, .F. );
#94 = ADVANCED_FACE( '', ( #154, #155 ), #156, .F. );
#95 = ADVANCED_FACE( '', ( #157 ), #158, .F. );
#97 = FACE_OUTER_BOUND( '', #159, .T. );
#98 = FACE_OUTER_BOUND( '', #160, .T. );
#99 = CYLINDRICAL_SURFACE( '', #161, 5.00000000000000 );
#100 = FACE_BOUND( '', #162, .T. );
#101 = FACE_OUTER_BOUND( '', #163, .T. );
#102 = PLANE( '', #164 );
#103 = FACE_OUTER_BOUND( '', #165, .T. );
#104 = FACE_OUTER_BOUND( '', #166, .T. );
#105 = TOROIDAL_SURFACE( '', #167, 8.00000000000000, 2.00000000000000 );
#106 = FACE_OUTER_BOUND( '', #168, .T. );
#107 = FACE_OUTER_BOUND( '', #169, .T. );
#108 = CYLINDRICAL_SURFACE( '', #170, 10.0000000000000 );
#109 = FACE_BOUND( '', #171, .T. );
#110 = FACE_OUTER_BOUND( '', #172, .T. );
#111 = SPHERICAL_SURFACE( '', #173, 7.60000000000000 );
#112 = FACE_BOUND( '', #174, .T. );
#113 = FACE_OUTER_BOUND( '', #175, .T. );
#114 = CONICAL_SURFACE( '', #176, 7.60000000000000, 0.244978663100000 );
#115 = FACE_OUTER_BOUND( '', #177, .T. );
#116 = FACE_OUTER_BOUND( '', #178, .T. );
#117 = TOROIDAL_SURFACE( '', #179, 7.50000000000000, 0.500000000000000 );
#118 = FACE_OUTER_BOUND( '', #180, .T. );
#119 = FACE_BOUND( '', #181, .T. );
#120 = PLANE( '', #182 );
#121 = FACE_OUTER_BOUND( '', #183, .T. );
#122 = FACE_OUTER_BOUND( '', #184, .T. );
#123 = TOROIDAL_SURFACE( '', #185, 8.99383565780000, 3.00000000000000 );
#124 = FACE_OUTER_BOUND( '', #186, .T. );
#125 = FACE_BOUND( '', #187, .T. );
#126 = CONICAL_SURFACE( '', #188, 11.9253917450000, 0.214018319700000 );
#127 = FACE_OUTER_BOUND( '', #189, .T. );
#128 = FACE_BOUND( '', #190, .T. );
#129 = CONICAL_SURFACE( '', #191, 14.0200000000000, 0.0798299857000000 );
#130 = FACE_BOUND( '', #192, .T. );
#131 = FACE_OUTER_BOUND( '', #193, .T. );
#132 = PLANE( '', #194 );
#133 = FACE_OUTER_BOUND( '', #195, .T. );
#134 = FACE_OUTER_BOUND( '', #196, .T. );
#135 = CYLINDRICAL_SURFACE( '', #197, 10.5000000000000 );
#136 = FACE_BOUND( '', #198, .T. );
#137 = FACE_OUTER_BOUND( '', #199, .T. );
#138 = CONICAL_SURFACE( '', #200, 10.5000000000000, 0.263306549600000 );
#139 = FACE_BOUND( '', #201, .T. );
#140 = FACE_OUTER_BOUND( '', #202, .T. );
#141 = CONICAL_SURFACE( '', #203, 9.57000000000000, 1.25264287920000 );
#142 = FACE_BOUND( '', #204, .T. );
#143 = FACE_OUTER_BOUND( '', #205, .T. );
#144 = CONICAL_SURFACE( '', #206, 7.90000000000000, 0.772740611600000 );
#145 = FACE_OUTER_BOUND( '', #207, .T. );
#146 = FACE_OUTER_BOUND( '', #208, .T. );
#147 = CYLINDRICAL_SURFACE( '', #209, 4.00000000000000 );
#148 = FACE_OUTER_BOUND( '', #210, .T. );
#149 = FACE_BOUND( '', #211, .T. );
#150 = PLANE( '', #212 );
#151 = FACE_OUTER_BOUND( '', #213, .T. );
#152 = FACE_OUTER_BOUND( '', #214, .T. );
#153 = CYLINDRICAL_SURFACE( '', #215, 4.25000000000000 );
#154 = FACE_OUTER_BOUND( '', #216, .T. );
#155 = FACE_BOUND( '', #217, .T. );
#156 = PLANE( '', #218 );
#157 = FACE_OUTER_BOUND( '', #219, .T. );
#158 = PLANE( '', #220 );
#159 = EDGE_LOOP( '', ( #221 ) );
#160 = EDGE_LOOP( '', ( #222 ) );
#161 = AXIS2_PLACEMENT_3D( '', #223, #224, #225 );
#162 = EDGE_LOOP( '', ( #226 ) );
#163 = EDGE_LOOP( '', ( #227 ) );
#164 = AXIS2_PLACEMENT_3D( '', #228, #229, #230 );
#165 = EDGE_LOOP( '', ( #231 ) );
#166 = EDGE_LOOP( '', ( #232 ) );
#167 = AXIS2_PLACEMENT_3D( '', #233, #234, #235 );
#168 = EDGE_LOOP( '', ( #236 ) );
#169 = EDGE_LOOP( '', ( #237 ) );
#170 = AXIS2_PLACEMENT_3D( '', #238, #239, #240 );
#171 = VERTEX_LOOP( '', #241 );
#172 = EDGE_LOOP( '', ( #242 ) );
#173 = AXIS2_PLACEMENT_3D( '', #243, #244, #245 );
#174 = EDGE_LOOP( '', ( #246 ) );
#175 = EDGE_LOOP( '', ( #247 ) );
#176 = AXIS2_PLACEMENT_3D( '', #248, #249, #250 );
#177 = EDGE_LOOP( '', ( #251 ) );
#178 = EDGE_LOOP( '', ( #252 ) );
#179 = AXIS2_PLACEMENT_3D( '', #253, #254, #255 );
#180 = EDGE_LOOP( '', ( #256 ) );
#181 = EDGE_LOOP( '', ( #257 ) );
#182 = AXIS2_PLACEMENT_3D( '', #258, #259, #260 );
#183 = EDGE_LOOP( '', ( #261 ) );
#184 = EDGE_LOOP( '', ( #262 ) );
#185 = AXIS2_PLACEMENT_3D( '', #263, #264, #265 );
#186 = EDGE_LOOP( '', ( #266 ) );
#187 = EDGE_LOOP( '', ( #267 ) );
#188 = AXIS2_PLACEMENT_3D( '', #268, #269, #270 );
#189 = EDGE_LOOP( '', ( #271 ) );
#190 = EDGE_LOOP( '', ( #272 ) );
#191 = AXIS2_PLACEMENT_3D( '', #273, #274, #275 );
#192 = EDGE_LOOP( '', ( #276 ) );
#193 = EDGE_LOOP( '', ( #277 ) );
#194 = AXIS2_PLACEMENT_3D( '', #278, #279, #280 );
#195 = EDGE_LOOP( '', ( #281 ) );
#196 = EDGE_LOOP( '', ( #282 ) );
#197 = AXIS2_PLACEMENT_3D( '', #283, #284, #285 );
#198 = EDGE_LOOP( '', ( #286 ) );
#199 = EDGE_LOOP( '', ( #287 ) );
#200 = AXIS2_PLACEMENT_3D( '', #288, #289, #290 );
#201 = EDGE_LOOP( '', ( #291 ) );
#202 = EDGE_LOOP( '', ( #292 ) );
#203 = AXIS2_PLACEMENT_3D( '', #293, #294, #295 );
#204 = EDGE_LOOP( '', ( #296 ) );
#205 = EDGE_LOOP( '', ( #297 ) );
#206 = AXIS2_PLACEMENT_3D( '', #298, #299, #300 );
#207 = EDGE_LOOP( '', ( #301 ) );
#208 = EDGE_LOOP( '', ( #302 ) );
#209 = AXIS2_PLACEMENT_3D( '', #303, #304, #305 );
#210 = EDGE_LOOP( '', ( #306 ) );
#211 = EDGE_LOOP( '', ( #307 ) );
#212 = AXIS2_PLACEMENT_3D( '', #308, #309, #310 );
#213 = EDGE_LOOP( '', ( #311 ) );
#214 = EDGE_LOOP( '', ( #312 ) );
#215 = AXIS2_PLACEMENT_3D( '', #313, #314, #315 );
#216 = EDGE_LOOP( '', ( #316 ) );
#217 = EDGE_LOOP( '', ( #317 ) );
#218 = AXIS2_PLACEMENT_3D( '', #318, #319, #320 );
#219 = EDGE_LOOP( '', ( #321 ) );
#220 = AXIS2_PLACEMENT_3D( '', #322, #323, #324 );
#221 = ORIENTED_EDGE( '', *, *, #325, .F. );
#222 = ORIENTED_EDGE( '', *, *, #326, .T. );
#223 = CARTESIAN_POINT( '', ( 0.000000000000000, -2.00000000000000, 0.000000000000000 ) );
#224 = DIRECTION( '', ( -0.000000000000000, 1.00000000000000, 0.000000000000000 ) );
#225 = DIRECTION( '', ( 0.000000000000000, 0.000000000000000, -1.00000000000000 ) );
#226 = ORIENTED_EDGE( '', *, *, #326, .F. );
#227 = ORIENTED_EDGE( '', *, *, #327, .T. );
#228 = CARTESIAN_POINT( '', ( 8.00000000000000, -2.00000000000000, 0.000000000000000 ) );
#229 = DIRECTION( '', ( 0.000000000000000, 1.00000000000000, 0.000000000000000 ) );
#230 = DIRECTION( '', ( 0.000000000000000, -0.000000000000000, 1.00000000000000 ) );
#231 = ORIENTED_EDGE( '', *, *, #328, .T. );
#232 = ORIENTED_EDGE( '', *, *, #327, .F. );
#233 = CARTESIAN_POINT( '', ( 0.000000000000000, 1.84314369322536E-15, 0.000000000000000 ) );
#234 = DIRECTION( '', ( 0.000000000000000, -1.00000000000000, -0.000000000000000 ) );
#235 = DIRECTION( '', ( 0.000000000000000, 0.000000000000000, -1.00000000000000 ) );
#236 = ORIENTED_EDGE( '', *, *, #328, .F. );
#237 = ORIENTED_EDGE( '', *, *, #329, .T. );
#238 = CARTESIAN_POINT( '', ( 0.000000000000000, -2.00000000000000, 0.000000000000000 ) );
#239 = DIRECTION( '', ( -0.000000000000000, 1.00000000000000, 0.000000000000000 ) );
#240 = DIRECTION( '', ( 0.000000000000000, 0.000000000000000, -1.00000000000000 ) );
#241 = VERTEX_POINT( '', #330 );
#242 = ORIENTED_EDGE( '', *, *, #331, .F. );
#243 = CARTESIAN_POINT( '', ( -1.30104260698261E-15, 15.1000000000000, 0.000000000000000 ) );
#244 = DIRECTION( '', ( 0.000000000000000, -1.00000000000000, 0.000000000000000 ) );
#245 = DIRECTION( '', ( -1.00000000000000, 0.000000000000000, 0.000000000000000 ) );
#246 = ORIENTED_EDGE( '', *, *, #332, .F. );
#247 = ORIENTED_EDGE( '', *, *, #331, .T. );
#248 = CARTESIAN_POINT( '', ( 0.000000000000000, 15.1000000000000, 0.000000000000000 ) );
#249 = DIRECTION( '', ( -0.000000000000000, -1.00000000000000, -0.000000000000000 ) );
#250 = DIRECTION( '', ( 0.000000000000000, 0.000000000000000, -1.00000000000000 ) );
#251 = ORIENTED_EDGE( '', *, *, #332, .T. );
#252 = ORIENTED_EDGE( '', *, *, #333, .F. );
#253 = CARTESIAN_POINT( '', ( 0.000000000000000, 17.5000000000000, 0.000000000000000 ) );
#254 = DIRECTION( '', ( 0.000000000000000, -1.00000000000000, -0.000000000000000 ) );
#255 = DIRECTION( '', ( 0.000000000000000, 0.000000000000000, -1.00000000000000 ) );
#256 = ORIENTED_EDGE( '', *, *, #334, .F. );
#257 = ORIENTED_EDGE( '', *, *, #333, .T. );
#258 = CARTESIAN_POINT( '', ( 7.50000000000000, 18.0000000000000, 0.000000000000000 ) );
#259 = DIRECTION( '', ( 0.000000000000000, -1.00000000000000, -0.000000000000000 ) );
#260 = DIRECTION( '', ( 0.000000000000000, 0.000000000000000, -1.00000000000000 ) );
#261 = ORIENTED_EDGE( '', *, *, #334, .T. );
#262 = ORIENTED_EDGE( '', *, *, #335, .F. );
#263 = CARTESIAN_POINT( '', ( 0.000000000000000, 15.0000000000000, 0.000000000000000 ) );
#264 = DIRECTION( '', ( 0.000000000000000, -1.00000000000000, -0.000000000000000 ) );
#265 = DIRECTION( '', ( 0.000000000000000, 0.000000000000000, -1.00000000000000 ) );
#266 = ORIENTED_EDGE( '', *, *, #336, .F. );
#267 = ORIENTED_EDGE( '', *, *, #335, .T. );
#268 = CARTESIAN_POINT( '', ( 0.000000000000000, 15.6371647413986, 0.000000000000000 ) );
#269 = DIRECTION( '', ( -0.000000000000000, -1.00000000000000, -0.000000000000000 ) );
#270 = DIRECTION( '', ( 0.000000000000000, 0.000000000000000, -1.00000000000000 ) );
#271 = ORIENTED_EDGE( '', *, *, #337, .F. );
#272 = ORIENTED_EDGE( '', *, *, #336, .T. );
#273 = CARTESIAN_POINT( '', ( 0.000000000000000, 6.00000000000000, 0.000000000000000 ) );
#274 = DIRECTION( '', ( -0.000000000000000, -1.00000000000000, -0.000000000000000 ) );
#275 = DIRECTION( '', ( 0.000000000000000, 0.000000000000000, -1.00000000000000 ) );
#276 = ORIENTED_EDGE( '', *, *, #338, .F. );
#277 = ORIENTED_EDGE( '', *, *, #337, .T. );
#278 = CARTESIAN_POINT( '', ( 14.5000000000000, 0.000000000000000, 0.000000000000000 ) );
#279 = DIRECTION( '', ( 0.000000000000000, 1.00000000000000, 0.000000000000000 ) );
#280 = DIRECTION( '', ( 0.000000000000000, -0.000000000000000, 1.00000000000000 ) );
#281 = ORIENTED_EDGE( '', *, *, #339, .F. );
#282 = ORIENTED_EDGE( '', *, *, #338, .T. );
#283 = CARTESIAN_POINT( '', ( 0.000000000000000, 0.000000000000000, 0.000000000000000 ) );
#284 = DIRECTION( '', ( -0.000000000000000, 1.00000000000000, 0.000000000000000 ) );
#285 = DIRECTION( '', ( 0.000000000000000, 0.000000000000000, -1.00000000000000 ) );
#286 = ORIENTED_EDGE( '', *, *, #340, .F. );
#287 = ORIENTED_EDGE( '', *, *, #339, .T. );
#288 = CARTESIAN_POINT( '', ( 0.000000000000000, 5.00000000000000, 0.000000000000000 ) );
#289 = DIRECTION( '', ( -0.000000000000000, -1.00000000000000, -0.000000000000000 ) );
#290 = DIRECTION( '', ( 0.000000000000000, 0.000000000000000, -1.00000000000000 ) );
#291 = ORIENTED_EDGE( '', *, *, #341, .F. );
#292 = ORIENTED_EDGE( '', *, *, #340, .T. );
#293 = CARTESIAN_POINT( '', ( 0.000000000000000, 8.45000000000000, 0.000000000000000 ) );
#294 = DIRECTION( '', ( -0.000000000000000, -1.00000000000000, -0.000000000000000 ) );
#295 = DIRECTION( '', ( 0.000000000000000, 0.000000000000000, -1.00000000000000 ) );
#296 = ORIENTED_EDGE( '', *, *, #342, .F. );
#297 = ORIENTED_EDGE( '', *, *, #341, .T. );
#298 = CARTESIAN_POINT( '', ( 0.000000000000000, 9.00000000000000, 0.000000000000000 ) );
#299 = DIRECTION( '', ( -0.000000000000000, 1.00000000000000, 0.000000000000000 ) );
#300 = DIRECTION( '', ( 0.000000000000000, -0.000000000000000, 1.00000000000000 ) );
#301 = ORIENTED_EDGE( '', *, *, #343, .F. );
#302 = ORIENTED_EDGE( '', *, *, #342, .T. );
#303 = CARTESIAN_POINT( '', ( 0.000000000000000, 0.000000000000000, 0.000000000000000 ) );
#304 = DIRECTION( '', ( -0.000000000000000, 1.00000000000000, 0.000000000000000 ) );
#305 = DIRECTION( '', ( 0.000000000000000, 0.000000000000000, -1.00000000000000 ) );
#306 = ORIENTED_EDGE( '', *, *, #344, .F. );
#307 = ORIENTED_EDGE( '', *, *, #343, .T. );
#308 = CARTESIAN_POINT( '', ( 0.000000000000000, 0.500000000000000, 0.000000000000000 ) );
#309 = DIRECTION( '', ( 0.000000000000000, -1.00000000000000, -0.000000000000000 ) );
#310 = DIRECTION( '', ( 0.000000000000000, 0.000000000000000, -1.00000000000000 ) );
#311 = ORIENTED_EDGE( '', *, *, #345, .F. );
#312 = ORIENTED_EDGE( '', *, *, #344, .T. );
#313 = CARTESIAN_POINT( '', ( 0.000000000000000, -2.00000000000000, 0.000000000000000 ) );
#314 = DIRECTION( '', ( -0.000000000000000, 1.00000000000000, 0.000000000000000 ) );
#315 = DIRECTION( '', ( 0.000000000000000, 0.000000000000000, -1.00000000000000 ) );
#316 = ORIENTED_EDGE( '', *, *, #329, .F. );
#317 = ORIENTED_EDGE( '', *, *, #345, .T. );
#318 = CARTESIAN_POINT( '', ( 4.25000000000000, 5.00000000000000, 0.000000000000000 ) );
#319 = DIRECTION( '', ( 0.000000000000000, -1.00000000000000, -0.000000000000000 ) );
#320 = DIRECTION( '', ( 0.000000000000000, 0.000000000000000, -1.00000000000000 ) );
#321 = ORIENTED_EDGE( '', *, *, #325, .T. );
#322 = CARTESIAN_POINT( '', ( 5.00000000000000, -1.60000000000000, 0.000000000000000 ) );
#323 = DIRECTION( '', ( 0.000000000000000, 1.00000000000000, 0.000000000000000 ) );
#324 = DIRECTION( '', ( 0.000000000000000, -0.000000000000000, 1.00000000000000 ) );
#325 = EDGE_CURVE( '', #346, #346, #347, .T. );
#326 = EDGE_CURVE( '', #348, #348, #349, .T. );
#327 = EDGE_CURVE( '', #350, #350, #351, .T. );
#328 = EDGE_CURVE( '', #352, #352, #353, .T. );
#329 = EDGE_CURVE( '', #354, #354, #355, .T. );
#330 = CARTESIAN_POINT( '', ( -1.76640839065860E-15, 7.50000000000000, 0.000000000000000 ) );
#331 = EDGE_CURVE( '', #356, #356, #357, .T. );
#332 = EDGE_CURVE( '', #358, #358, #359, .T. );
#333 = EDGE_CURVE( '', #360, #360, #361, .T. );
#334 = EDGE_CURVE( '', #362, #362, #363, .T. );
#335 = EDGE_CURVE( '', #364, #364, #365, .T. );
#336 = EDGE_CURVE( '', #366, #366, #367, .T. );
#337 = EDGE_CURVE( '', #368, #368, #369, .T. );
#338 = EDGE_CURVE( '', #370, #370, #371, .T. );
#339 = EDGE_CURVE( '', #372, #372, #373, .T. );
#340 = EDGE_CURVE( '', #374, #374, #375, .T. );
#341 = EDGE_CURVE( '', #376, #376, #377, .T. );
#342 = EDGE_CURVE( '', #378, #378, #379, .T. );
#343 = EDGE_CURVE( '', #380, #380, #381, .T. );
#344 = EDGE_CURVE( '', #382, #382, #383, .T. );
#345 = EDGE_CURVE( '', #384, #384, #385, .T. );
#346 = VERTEX_POINT( '', #386 );
#347 = CIRCLE( '', #387, 5.00000000000000 );
#348 = VERTEX_POINT( '', #388 );
#349 = CIRCLE( '', #389, 5.00000000000000 );
#350 = VERTEX_POINT( '', #390 );
#351 = CIRCLE( '', #391, 8.00000000000000 );
#352 = VERTEX_POINT( '', #392 );
#353 = CIRCLE( '', #393, 10.0000000000000 );
#354 = VERTEX_POINT( '', #394 );
#355 = CIRCLE( '', #395, 10.0000000000000 );
#356 = VERTEX_POINT( '', #396 );
#357 = CIRCLE( '', #397, 7.60000000000000 );
#358 = VERTEX_POINT( '', #398 );
#359 = CIRCLE( '', #399, 7.00000000000000 );
#360 = VERTEX_POINT( '', #400 );
#361 = CIRCLE( '', #401, 7.50000000000000 );
#362 = VERTEX_POINT( '', #402 );
#363 = CIRCLE( '', #403, 8.99383565780000 );
#364 = VERTEX_POINT( '', #404 );
#365 = CIRCLE( '', #405, 11.9253917450000 );
#366 = VERTEX_POINT( '', #406 );
#367 = CIRCLE( '', #407, 14.0200000000000 );
#368 = VERTEX_POINT( '', #408 );
#369 = CIRCLE( '', #409, 14.5000000000000 );
#370 = VERTEX_POINT( '', #410 );
#371 = CIRCLE( '', #411, 10.5000000000000 );
#372 = VERTEX_POINT( '', #412 );
#373 = CIRCLE( '', #413, 10.5000000000000 );
#374 = VERTEX_POINT( '', #414 );
#375 = CIRCLE( '', #415, 9.57000000000000 );
#376 = VERTEX_POINT( '', #416 );
#377 = CIRCLE( '', #417, 7.90000000000000 );
#378 = VERTEX_POINT( '', #418 );
#379 = CIRCLE( '', #419, 4.00000000000000 );
#380 = VERTEX_POINT( '', #420 );
#381 = CIRCLE( '', #421, 4.00000000000000 );
#382 = VERTEX_POINT( '', #422 );
#383 = CIRCLE( '', #423, 4.25000000000000 );
#384 = VERTEX_POINT( '', #424 );
#385 = CIRCLE( '', #425, 4.25000000000000 );
#386 = CARTESIAN_POINT( '', ( 0.000000000000000, -1.60000000000000, -5.00000000000000 ) );
#387 = AXIS2_PLACEMENT_3D( '', #426, #427, #428 );
#388 = CARTESIAN_POINT( '', ( 0.000000000000000, -2.00000000000000, -5.00000000000000 ) );
#389 = AXIS2_PLACEMENT_3D( '', #429, #430, #431 );
#390 = CARTESIAN_POINT( '', ( 0.000000000000000, -2.00000000000000, -8.00000000000000 ) );
#391 = AXIS2_PLACEMENT_3D( '', #432, #433, #434 );
#392 = CARTESIAN_POINT( '', ( 0.000000000000000, 0.000000000000000, -10.0000000000000 ) );
#393 = AXIS2_PLACEMENT_3D( '', #435, #436, #437 );
#394 = CARTESIAN_POINT( '', ( 0.000000000000000, 5.00000000000000, -10.0000000000000 ) );
#395 = AXIS2_PLACEMENT_3D( '', #438, #439, #440 );
#396 = CARTESIAN_POINT( '', ( 0.000000000000000, 15.1000000000000, -7.60000000000000 ) );
#397 = AXIS2_PLACEMENT_3D( '', #441, #442, #443 );
#398 = CARTESIAN_POINT( '', ( 0.000000000000000, 17.5000000000000, -7.00000000000000 ) );
#399 = AXIS2_PLACEMENT_3D( '', #444, #445, #446 );
#400 = CARTESIAN_POINT( '', ( 0.000000000000000, 18.0000000000000, -7.50000000000000 ) );
#401 = AXIS2_PLACEMENT_3D( '', #447, #448, #449 );
#402 = CARTESIAN_POINT( '', ( 0.000000000000000, 18.0000000000000, -8.99383565779554 ) );
#403 = AXIS2_PLACEMENT_3D( '', #450, #451, #452 );
#404 = CARTESIAN_POINT( '', ( 0.000000000000000, 15.6371647413986, -11.9253917449817 ) );
#405 = AXIS2_PLACEMENT_3D( '', #453, #454, #455 );
#406 = CARTESIAN_POINT( '', ( 0.000000000000000, 6.00000000000000, -14.0200000000000 ) );
#407 = AXIS2_PLACEMENT_3D( '', #456, #457, #458 );
#408 = CARTESIAN_POINT( '', ( 0.000000000000000, 0.000000000000000, -14.5000000000000 ) );
#409 = AXIS2_PLACEMENT_3D( '', #459, #460, #461 );
#410 = CARTESIAN_POINT( '', ( 0.000000000000000, 0.000000000000000, -10.5000000000000 ) );
#411 = AXIS2_PLACEMENT_3D( '', #462, #463, #464 );
#412 = CARTESIAN_POINT( '', ( 0.000000000000000, 5.00000000000000, -10.5000000000000 ) );
#413 = AXIS2_PLACEMENT_3D( '', #465, #466, #467 );
#414 = CARTESIAN_POINT( '', ( 0.000000000000000, 8.45000000000000, -9.57000000000000 ) );
#415 = AXIS2_PLACEMENT_3D( '', #468, #469, #470 );
#416 = CARTESIAN_POINT( '', ( 0.000000000000000, 9.00000000000000, -7.90000000000000 ) );
#417 = AXIS2_PLACEMENT_3D( '', #471, #472, #473 );
#418 = CARTESIAN_POINT( '', ( 0.000000000000000, 5.00000000000000, -4.00000000000000 ) );
#419 = AXIS2_PLACEMENT_3D( '', #474, #475, #476 );
#420 = CARTESIAN_POINT( '', ( 0.000000000000000, 0.500000000000000, -4.00000000000000 ) );
#421 = AXIS2_PLACEMENT_3D( '', #477, #478, #479 );
#422 = CARTESIAN_POINT( '', ( 0.000000000000000, 0.500000000000000, -4.25000000000000 ) );
#423 = AXIS2_PLACEMENT_3D( '', #480, #481, #482 );
#424 = CARTESIAN_POINT( '', ( 0.000000000000000, 5.00000000000000, -4.25000000000000 ) );
#425 = AXIS2_PLACEMENT_3D( '', #483, #484, #485 );
#426 = CARTESIAN_POINT( '', ( 0.000000000000000, -1.60000000000000, 0.000000000000000 ) );
#427 = DIRECTION( '', ( 0.000000000000000, -1.00000000000000, -0.000000000000000 ) );
#428 = DIRECTION( '', ( 0.000000000000000, 0.000000000000000, -1.00000000000000 ) );
#429 = CARTESIAN_POINT( '', ( 0.000000000000000, -2.00000000000000, 0.000000000000000 ) );
#430 = DIRECTION( '', ( 0.000000000000000, -1.00000000000000, -0.000000000000000 ) );
#431 = DIRECTION( '', ( 0.000000000000000, 0.000000000000000, -1.00000000000000 ) );
#432 = CARTESIAN_POINT( '', ( 0.000000000000000, -2.00000000000000, 0.000000000000000 ) );
#433 = DIRECTION( '', ( 0.000000000000000, -1.00000000000000, -0.000000000000000 ) );
#434 = DIRECTION( '', ( 0.000000000000000, 0.000000000000000, -1.00000000000000 ) );
#435 = CARTESIAN_POINT( '', ( 0.000000000000000, 0.000000000000000, 0.000000000000000 ) );
#436 = DIRECTION( '', ( 0.000000000000000, -1.00000000000000, -0.000000000000000 ) );
#437 = DIRECTION( '', ( 0.000000000000000, 0.000000000000000, -1.00000000000000 ) );
#438 = CARTESIAN_POINT( '', ( 0.000000000000000, 5.00000000000000, 0.000000000000000 ) );
#439 = DIRECTION( '', ( 0.000000000000000, -1.00000000000000, -0.000000000000000 ) );
#440 = DIRECTION( '', ( 0.000000000000000, 0.000000000000000, -1.00000000000000 ) );
#441 = CARTESIAN_POINT( '', ( 0.000000000000000, 15.1000000000000, 0.000000000000000 ) );
#442 = DIRECTION( '', ( 0.000000000000000, -1.00000000000000, -0.000000000000000 ) );
#443 = DIRECTION( '', ( 0.000000000000000, 0.000000000000000, -1.00000000000000 ) );
#444 = CARTESIAN_POINT( '', ( 0.000000000000000, 17.5000000000000, 0.000000000000000 ) );
#445 = DIRECTION( '', ( 0.000000000000000, -1.00000000000000, -0.000000000000000 ) );
#446 = DIRECTION( '', ( 0.000000000000000, 0.000000000000000, -1.00000000000000 ) );
#447 = CARTESIAN_POINT( '', ( 0.000000000000000, 18.0000000000000, 0.000000000000000 ) );
#448 = DIRECTION( '', ( 0.000000000000000, -1.00000000000000, -0.000000000000000 ) );
#449 = DIRECTION( '', ( 0.000000000000000, 0.000000000000000, -1.00000000000000 ) );
#450 = CARTESIAN_POINT( '', ( 0.000000000000000, 18.0000000000000, 0.000000000000000 ) );
#451 = DIRECTION( '', ( 0.000000000000000, -1.00000000000000, -0.000000000000000 ) );
#452 = DIRECTION( '', ( 0.000000000000000, 0.000000000000000, -1.00000000000000 ) );
#453 = CARTESIAN_POINT( '', ( 0.000000000000000, 15.6371647413986, 0.000000000000000 ) );
#454 = DIRECTION( '', ( 0.000000000000000, -1.00000000000000, -0.000000000000000 ) );
#455 = DIRECTION( '', ( 0.000000000000000, 0.000000000000000, -1.00000000000000 ) );
#456 = CARTESIAN_POINT( '', ( 0.000000000000000, 6.00000000000000, 0.000000000000000 ) );
#457 = DIRECTION( '', ( 0.000000000000000, -1.00000000000000, -0.000000000000000 ) );
#458 = DIRECTION( '', ( 0.000000000000000, 0.000000000000000, -1.00000000000000 ) );
#459 = CARTESIAN_POINT( '', ( 0.000000000000000, 0.000000000000000, 0.000000000000000 ) );
#460 = DIRECTION( '', ( 0.000000000000000, -1.00000000000000, -0.000000000000000 ) );
#461 = DIRECTION( '', ( 0.000000000000000, 0.000000000000000, -1.00000000000000 ) );
#462 = CARTESIAN_POINT( '', ( 0.000000000000000, 0.000000000000000, 0.000000000000000 ) );
#463 = DIRECTION( '', ( 0.000000000000000, -1.00000000000000, -0.000000000000000 ) );
#464 = DIRECTION( '', ( 0.000000000000000, 0.000000000000000, -1.00000000000000 ) );
#465 = CARTESIAN_POINT( '', ( 0.000000000000000, 5.00000000000000, 0.000000000000000 ) );
#466 = DIRECTION( '', ( 0.000000000000000, -1.00000000000000, -0.000000000000000 ) );
#467 = DIRECTION( '', ( 0.000000000000000, 0.000000000000000, -1.00000000000000 ) );
#468 = CARTESIAN_POINT( '', ( 0.000000000000000, 8.45000000000000, 0.000000000000000 ) );
#469 = DIRECTION( '', ( 0.000000000000000, -1.00000000000000, -0.000000000000000 ) );
#470 = DIRECTION( '', ( 0.000000000000000, 0.000000000000000, -1.00000000000000 ) );
#471 = CARTESIAN_POINT( '', ( 0.000000000000000, 9.00000000000000, 0.000000000000000 ) );
#472 = DIRECTION( '', ( 0.000000000000000, -1.00000000000000, -0.000000000000000 ) );
#473 = DIRECTION( '', ( 0.000000000000000, 0.000000000000000, -1.00000000000000 ) );
#474 = CARTESIAN_POINT( '', ( 0.000000000000000, 5.00000000000000, 0.000000000000000 ) );
#475 = DIRECTION( '', ( 0.000000000000000, -1.00000000000000, -0.000000000000000 ) );
#476 = DIRECTION( '', ( 0.000000000000000, 0.000000000000000, -1.00000000000000 ) );
#477 = CARTESIAN_POINT( '', ( 0.000000000000000, 0.500000000000000, 0.000000000000000 ) );
#478 = DIRECTION( '', ( 0.000000000000000, -1.00000000000000, -0.000000000000000 ) );
#479 = DIRECTION( '', ( 0.000000000000000, 0.000000000000000, -1.00000000000000 ) );
#480 = CARTESIAN_POINT( '', ( 0.000000000000000, 0.500000000000000, 0.000000000000000 ) );
#481 = DIRECTION( '', ( 0.000000000000000, -1.00000000000000, -0.000000000000000 ) );
#482 = DIRECTION( '', ( 0.000000000000000, 0.000000000000000, -1.00000000000000 ) );
#483 = CARTESIAN_POINT( '', ( 0.000000000000000, 5.00000000000000, 0.000000000000000 ) );
#484 = DIRECTION( '', ( 0.000000000000000, -1.00000000000000, -0.000000000000000 ) );
#485 = DIRECTION( '', ( 0.000000000000000, 0.000000000000000, -1.00000000000000 ) );
ENDSEC;
END-ISO-10303-21;
