ISO-10303-21;
HEADER;
FILE_DESCRIPTION( ( 'STEP AP203' ), '1' );
FILE_NAME( 'p:/temp/worker_156/temp/exporttempdir_1884_17_nHPvk/format_0/098D080ZSG.stp', '2020-12-07T12:35:52', ( 'License CC BY-ND 4.0' ), ( 'CADENAS' ), ' ', 'PARTsolutions', ' ' );
FILE_SCHEMA( ( 'CONFIG_CONTROL_DESIGN' ) );
ENDSEC;
DATA;
#1 = DESIGN_CONTEXT( '', #27, 'design' );
#2 = APPLICATION_PROTOCOL_DEFINITION( 'international standard', 'config_control_design', 1994, #27 );
#3 = PRODUCT_CATEGORY_RELATIONSHIP( 'NONE', 'NONE', #28, #29 );
#4 = DATE_AND_TIME( #30, #31 );
#5 = DATE_TIME_ROLE( 'creation_date' );
#6 = DATE_TIME_ROLE( 'classification_date' );
#7 = PERSON_AND_ORGANIZATION_ROLE( 'creator' );
#8 = PERSON_AND_ORGANIZATION_ROLE( 'design_supplier' );
#9 = PERSON_AND_ORGANIZATION_ROLE( 'classification_officer' );
#10 = PERSON_AND_ORGANIZATION_ROLE( 'design_owner' );
#11 = APPROVAL_PERSON_ORGANIZATION( #32, #33, #34 );
#12 = APPROVAL_DATE_TIME( #4, #33 );
#13 = CC_DESIGN_APPROVAL( #33, ( #35, #36, #37 ) );
#14 = CC_DESIGN_DATE_AND_TIME_ASSIGNMENT( #4, #5, ( #37 ) );
#15 = CC_DESIGN_DATE_AND_TIME_ASSIGNMENT( #4, #6, ( #35 ) );
#16 = CC_DESIGN_PERSON_AND_ORGANIZATION_ASSIGNMENT( #32, #10, ( #38 ) );
#17 = CC_DESIGN_PERSON_AND_ORGANIZATION_ASSIGNMENT( #32, #7, ( #37 ) );
#18 = CC_DESIGN_PERSON_AND_ORGANIZATION_ASSIGNMENT( #32, #7, ( #36 ) );
#19 = CC_DESIGN_PERSON_AND_ORGANIZATION_ASSIGNMENT( #32, #8, ( #36 ) );
#20 = CC_DESIGN_SECURITY_CLASSIFICATION( #35, ( #36 ) );
#21 = CC_DESIGN_PERSON_AND_ORGANIZATION_ASSIGNMENT( #32, #9, ( #35 ) );
#22 = SHAPE_DEFINITION_REPRESENTATION( #39, #40 );
#23 =  ( GEOMETRIC_REPRESENTATION_CONTEXT( 3 )GLOBAL_UNCERTAINTY_ASSIGNED_CONTEXT( ( #43 ) )GLOBAL_UNIT_ASSIGNED_CONTEXT( ( #45, #46, #47 ) )REPRESENTATION_CONTEXT( 'NONE', 'WORKSPACE' ) );
#27 = APPLICATION_CONTEXT( 'configuration controlled 3D designs of mechanical parts and assemblies' );
#28 = PRODUCT_CATEGORY( 'part', 'NONE' );
#29 = PRODUCT_RELATED_PRODUCT_CATEGORY( 'detail', ' ', ( #38 ) );
#30 = CALENDAR_DATE( 2020, 7, 11 );
#31 = LOCAL_TIME( 13, 35, 52.0000000000000, #49 );
#32 = PERSON_AND_ORGANIZATION( #50, #51 );
#33 = APPROVAL( #52, 'SOLID MODEL' );
#34 = APPROVAL_ROLE( 'APPROVED' );
#35 = SECURITY_CLASSIFICATION( '', '', #53 );
#36 = PRODUCT_DEFINITION_FORMATION_WITH_SPECIFIED_SOURCE( ' ', 'NONE', #38, .NOT_KNOWN. );
#37 = PRODUCT_DEFINITION( 'NONE', 'NONE', #36, #1 );
#38 = PRODUCT( '_098D080ZSG', '_098D080ZSG', 'PART-_098D080ZSG-DESC', ( #54 ) );
#39 = PRODUCT_DEFINITION_SHAPE( 'NONE', 'NONE', #37 );
#40 = ADVANCED_BREP_SHAPE_REPRESENTATION( '_098D080ZSG', ( #55, #56 ), #23 );
#43 = UNCERTAINTY_MEASURE_WITH_UNIT( LENGTH_MEASURE( 0.00100000000000000 ), #45, '', '' );
#45 =  ( CONVERSION_BASED_UNIT( 'MILLIMETRE', #59 )LENGTH_UNIT(  )NAMED_UNIT( #62 ) );
#46 =  ( NAMED_UNIT( #64 )PLANE_ANGLE_UNIT(  )SI_UNIT( $, .RADIAN. ) );
#47 =  ( NAMED_UNIT( #64 )SI_UNIT( $, .STERADIAN. )SOLID_ANGLE_UNIT(  ) );
#49 = COORDINATED_UNIVERSAL_TIME_OFFSET( 1, 0, .AHEAD. );
#50 = PERSON( '', 'UNSPECIFIED', $, $, $, $ );
#51 = ORGANIZATION( 'UNSPECIFIED', 'UNSPECIFIED', 'UNSPECIFIED' );
#52 = APPROVAL_STATUS( 'approved' );
#53 = SECURITY_CLASSIFICATION_LEVEL( 'unclassified' );
#54 = MECHANICAL_CONTEXT( '', #27, 'mechanical' );
#55 = BREP_WITH_VOIDS( '_098D080ZSG', #70, ( #71 ) );
#56 = AXIS2_PLACEMENT_3D( '', #72, #73, #74 );
#59 = LENGTH_MEASURE_WITH_UNIT( LENGTH_MEASURE( 1.00000000000000 ), #75 );
#62 = DIMENSIONAL_EXPONENTS( 1.00000000000000, 0.000000000000000, 0.000000000000000, 0.000000000000000, 0.000000000000000, 0.000000000000000, 0.000000000000000 );
#64 = DIMENSIONAL_EXPONENTS( 0.000000000000000, 0.000000000000000, 0.000000000000000, 0.000000000000000, 0.000000000000000, 0.000000000000000, 0.000000000000000 );
#70 = CLOSED_SHELL( '', ( #76, #77, #78, #79, #80, #81, #82, #83, #84, #85, #86, #87, #88, #89 ) );
#71 = ORIENTED_CLOSED_SHELL( '', *, #90, .T. );
#72 = CARTESIAN_POINT( '', ( 0.000000000000000, 0.000000000000000, 0.000000000000000 ) );
#73 = DIRECTION( '', ( 0.000000000000000, 0.000000000000000, 1.00000000000000 ) );
#74 = DIRECTION( '', ( 1.00000000000000, 0.000000000000000, 0.000000000000000 ) );
#75 =  ( LENGTH_UNIT(  )NAMED_UNIT( #62 )SI_UNIT( .MILLI., .METRE. ) );
#76 = ADVANCED_FACE( '', ( #92, #93 ), #94, .F. );
#77 = ADVANCED_FACE( '', ( #95, #96 ), #97, .F. );
#78 = ADVANCED_FACE( '', ( #98 ), #99, .F. );
#79 = ADVANCED_FACE( '', ( #100, #101 ), #102, .T. );
#80 = ADVANCED_FACE( '', ( #103, #104 ), #105, .F. );
#81 = ADVANCED_FACE( '', ( #106, #107 ), #108, .F. );
#82 = ADVANCED_FACE( '', ( #109, #110 ), #111, .F. );
#83 = ADVANCED_FACE( '', ( #112, #113 ), #114, .F. );
#84 = ADVANCED_FACE( '', ( #115, #116 ), #117, .F. );
#85 = ADVANCED_FACE( '', ( #118, #119 ), #120, .F. );
#86 = ADVANCED_FACE( '', ( #121, #122 ), #123, .T. );
#87 = ADVANCED_FACE( '', ( #124, #125 ), #126, .T. );
#88 = ADVANCED_FACE( '', ( #127, #128 ), #129, .T. );
#89 = ADVANCED_FACE( '', ( #130, #131 ), #132, .F. );
#90 = CLOSED_SHELL( '', ( #133, #134, #135, #136 ) );
#92 = FACE_BOUND( '', #137, .T. );
#93 = FACE_OUTER_BOUND( '', #138, .T. );
#94 = PLANE( '', #139 );
#95 = FACE_OUTER_BOUND( '', #140, .T. );
#96 = FACE_OUTER_BOUND( '', #141, .T. );
#97 = CYLINDRICAL_SURFACE( '', #142, 34.5000000000000 );
#98 = FACE_OUTER_BOUND( '', #143, .T. );
#99 = PLANE( '', #144 );
#100 = FACE_OUTER_BOUND( '', #145, .T. );
#101 = FACE_OUTER_BOUND( '', #146, .T. );
#102 = CYLINDRICAL_SURFACE( '', #147, 34.0000000000000 );
#103 = FACE_BOUND( '', #148, .T. );
#104 = FACE_OUTER_BOUND( '', #149, .T. );
#105 = PLANE( '', #150 );
#106 = FACE_OUTER_BOUND( '', #151, .T. );
#107 = FACE_OUTER_BOUND( '', #152, .T. );
#108 = CYLINDRICAL_SURFACE( '', #153, 20.0000000000000 );
#109 = FACE_BOUND( '', #154, .T. );
#110 = FACE_OUTER_BOUND( '', #155, .T. );
#111 = SPHERICAL_SURFACE( '', #156, 7.60000000000000 );
#112 = FACE_BOUND( '', #157, .T. );
#113 = FACE_OUTER_BOUND( '', #158, .T. );
#114 = CONICAL_SURFACE( '', #159, 7.60000000000000, 0.244978663100000 );
#115 = FACE_OUTER_BOUND( '', #160, .T. );
#116 = FACE_BOUND( '', #161, .T. );
#117 = CONICAL_SURFACE( '', #162, 7.00000000000000, 0.785398163400000 );
#118 = FACE_OUTER_BOUND( '', #163, .T. );
#119 = FACE_BOUND( '', #164, .T. );
#120 = PLANE( '', #165 );
#121 = FACE_OUTER_BOUND( '', #166, .T. );
#122 = FACE_OUTER_BOUND( '', #167, .T. );
#123 = ( BOUNDED_SURFACE(  )B_SPLINE_SURFACE( 3, 3, ( ( #170, #171, #172, #173, #174, #175, #176 ), ( #177, #178, #179, #180, #181, #182, #183 ), ( #184, #185, #186, #187, #188, #189, #190 ), ( #191, #192, #193, #194, #195, #196, #197 ) ), .UNSPECIFIED., .F., .T., .F. )B_SPLINE_SURFACE_WITH_KNOTS( ( 4, 4 ), ( 4, 3, 4 ), ( 0.000000000000000, 6.28318530717959 ), ( -1.51415220717616, -1.21088498047717, -0.907617753778177 ), .UNSPECIFIED. )GEOMETRIC_REPRESENTATION_ITEM(  )RATIONAL_B_SPLINE_SURFACE( ( ( 1.00000000000000, 0.333333333333333, 0.333333333333333, 1.00000000000000, 0.333333333333333, 0.333333333333333, 1.00000000000000 ), ( 0.969577240226573, 0.323192413408858, 0.323192413408858, 0.969577240226573, 0.323192413408858, 0.323192413408858, 0.969577240226573 ), ( 0.969577240226573, 0.323192413408858, 0.323192413408858, 0.969577240226573, 0.323192413408858, 0.323192413408858, 0.969577240226573 ), ( 1.00000000000000, 0.333333333333333, 0.333333333333333, 1.00000000000000, 0.333333333333333, 0.333333333333333, 1.00000000000000 ) ) )REPRESENTATION_ITEM( '' )SURFACE(  ) );
#124 = FACE_OUTER_BOUND( '', #203, .T. );
#125 = FACE_OUTER_BOUND( '', #204, .T. );
#126 = TOROIDAL_SURFACE( '', #205, 35.1448657542000, 4.00000000000000 );
#127 = FACE_OUTER_BOUND( '', #206, .T. );
#128 = FACE_BOUND( '', #207, .T. );
#129 = CONICAL_SURFACE( '', #208, 39.1325350891000, 0.0785398163000000 );
#130 = FACE_BOUND( '', #209, .T. );
#131 = FACE_OUTER_BOUND( '', #210, .T. );
#132 = PLANE( '', #211 );
#133 = ADVANCED_FACE( '', ( #212, #213 ), #214, .T. );
#134 = ADVANCED_FACE( '', ( #215, #216 ), #217, .F. );
#135 = ADVANCED_FACE( '', ( #218, #219 ), #220, .F. );
#136 = ADVANCED_FACE( '', ( #221, #222 ), #223, .F. );
#137 = EDGE_LOOP( '', ( #224 ) );
#138 = EDGE_LOOP( '', ( #225 ) );
#139 = AXIS2_PLACEMENT_3D( '', #226, #227, #228 );
#140 = EDGE_LOOP( '', ( #229 ) );
#141 = EDGE_LOOP( '', ( #230 ) );
#142 = AXIS2_PLACEMENT_3D( '', #231, #232, #233 );
#143 = EDGE_LOOP( '', ( #234 ) );
#144 = AXIS2_PLACEMENT_3D( '', #235, #236, #237 );
#145 = EDGE_LOOP( '', ( #238 ) );
#146 = EDGE_LOOP( '', ( #239 ) );
#147 = AXIS2_PLACEMENT_3D( '', #240, #241, #242 );
#148 = EDGE_LOOP( '', ( #243 ) );
#149 = EDGE_LOOP( '', ( #244 ) );
#150 = AXIS2_PLACEMENT_3D( '', #245, #246, #247 );
#151 = EDGE_LOOP( '', ( #248 ) );
#152 = EDGE_LOOP( '', ( #249 ) );
#153 = AXIS2_PLACEMENT_3D( '', #250, #251, #252 );
#154 = VERTEX_LOOP( '', #253 );
#155 = EDGE_LOOP( '', ( #254 ) );
#156 = AXIS2_PLACEMENT_3D( '', #255, #256, #257 );
#157 = EDGE_LOOP( '', ( #258 ) );
#158 = EDGE_LOOP( '', ( #259 ) );
#159 = AXIS2_PLACEMENT_3D( '', #260, #261, #262 );
#160 = EDGE_LOOP( '', ( #263 ) );
#161 = EDGE_LOOP( '', ( #264 ) );
#162 = AXIS2_PLACEMENT_3D( '', #265, #266, #267 );
#163 = EDGE_LOOP( '', ( #268 ) );
#164 = EDGE_LOOP( '', ( #269 ) );
#165 = AXIS2_PLACEMENT_3D( '', #270, #271, #272 );
#166 = EDGE_LOOP( '', ( #273 ) );
#167 = EDGE_LOOP( '', ( #274 ) );
#170 = CARTESIAN_POINT( '', ( 0.000000000000000, 7.50740563741458, -37.6073649480991 ) );
#171 = CARTESIAN_POINT( '', ( 75.2147298961983, 7.50740563741458, -37.6073649480991 ) );
#172 = CARTESIAN_POINT( '', ( 75.2147298961983, 7.50740563741458, 37.6073649480991 ) );
#173 = CARTESIAN_POINT( '', ( 0.000000000000000, 7.50740563741458, 37.6073649480991 ) );
#174 = CARTESIAN_POINT( '', ( -75.2147298961983, 7.50740563741458, 37.6073649480991 ) );
#175 = CARTESIAN_POINT( '', ( -75.2147298961983, 7.50740563741458, -37.6073649480991 ) );
#176 = CARTESIAN_POINT( '', ( 0.000000000000000, 7.50740563741458, -37.6073649480991 ) );
#177 = CARTESIAN_POINT( '', ( 0.000000000000000, 13.8128652233057, -29.5359704115813 ) );
#178 = CARTESIAN_POINT( '', ( 59.0719408231627, 13.8128652233057, -29.5359704115813 ) );
#179 = CARTESIAN_POINT( '', ( 59.0719408231627, 13.8128652233057, 29.5359704115813 ) );
#180 = CARTESIAN_POINT( '', ( 0.000000000000000, 13.8128652233057, 29.5359704115813 ) );
#181 = CARTESIAN_POINT( '', ( -59.0719408231627, 13.8128652233057, 29.5359704115813 ) );
#182 = CARTESIAN_POINT( '', ( -59.0719408231627, 13.8128652233057, -29.5359704115813 ) );
#183 = CARTESIAN_POINT( '', ( 0.000000000000000, 13.8128652233057, -29.5359704115813 ) );
#184 = CARTESIAN_POINT( '', ( 0.000000000000000, 17.4201399293186, -19.9498450447402 ) );
#185 = CARTESIAN_POINT( '', ( 39.8996900894804, 17.4201399293186, -19.9498450447402 ) );
#186 = CARTESIAN_POINT( '', ( 39.8996900894804, 17.4201399293186, 19.9498450447402 ) );
#187 = CARTESIAN_POINT( '', ( 0.000000000000000, 17.4201399293186, 19.9498450447402 ) );
#188 = CARTESIAN_POINT( '', ( -39.8996900894804, 17.4201399293186, 19.9498450447402 ) );
#189 = CARTESIAN_POINT( '', ( -39.8996900894804, 17.4201399293186, -19.9498450447402 ) );
#190 = CARTESIAN_POINT( '', ( 0.000000000000000, 17.4201399293186, -19.9498450447402 ) );
#191 = CARTESIAN_POINT( '', ( 0.000000000000000, 18.0000000000000, -9.72389801515582 ) );
#192 = CARTESIAN_POINT( '', ( 19.4477960303116, 18.0000000000000, -9.72389801515582 ) );
#193 = CARTESIAN_POINT( '', ( 19.4477960303116, 18.0000000000000, 9.72389801515582 ) );
#194 = CARTESIAN_POINT( '', ( 0.000000000000000, 18.0000000000000, 9.72389801515582 ) );
#195 = CARTESIAN_POINT( '', ( -19.4477960303116, 18.0000000000000, 9.72389801515582 ) );
#196 = CARTESIAN_POINT( '', ( -19.4477960303116, 18.0000000000000, -9.72389801515582 ) );
#197 = CARTESIAN_POINT( '', ( 0.000000000000000, 18.0000000000000, -9.72389801515582 ) );
#203 = EDGE_LOOP( '', ( #275 ) );
#204 = EDGE_LOOP( '', ( #276 ) );
#205 = AXIS2_PLACEMENT_3D( '', #277, #278, #279 );
#206 = EDGE_LOOP( '', ( #280 ) );
#207 = EDGE_LOOP( '', ( #281 ) );
#208 = AXIS2_PLACEMENT_3D( '', #282, #283, #284 );
#209 = EDGE_LOOP( '', ( #285 ) );
#210 = EDGE_LOOP( '', ( #286 ) );
#211 = AXIS2_PLACEMENT_3D( '', #287, #288, #289 );
#212 = FACE_OUTER_BOUND( '', #290, .T. );
#213 = FACE_OUTER_BOUND( '', #291, .T. );
#214 = CYLINDRICAL_SURFACE( '', #292, 7.40000000000000 );
#215 = FACE_BOUND( '', #293, .T. );
#216 = FACE_OUTER_BOUND( '', #294, .T. );
#217 = PLANE( '', #295 );
#218 = FACE_OUTER_BOUND( '', #296, .T. );
#219 = FACE_OUTER_BOUND( '', #297, .T. );
#220 = CYLINDRICAL_SURFACE( '', #298, 7.75000000000000 );
#221 = FACE_OUTER_BOUND( '', #299, .T. );
#222 = FACE_BOUND( '', #300, .T. );
#223 = PLANE( '', #301 );
#224 = ORIENTED_EDGE( '', *, *, #302, .F. );
#225 = ORIENTED_EDGE( '', *, *, #303, .T. );
#226 = CARTESIAN_POINT( '', ( 34.5000000000000, 5.00000000000000, 0.000000000000000 ) );
#227 = DIRECTION( '', ( 0.000000000000000, 1.00000000000000, 0.000000000000000 ) );
#228 = DIRECTION( '', ( 0.000000000000000, -0.000000000000000, 1.00000000000000 ) );
#229 = ORIENTED_EDGE( '', *, *, #303, .F. );
#230 = ORIENTED_EDGE( '', *, *, #304, .T. );
#231 = CARTESIAN_POINT( '', ( 0.000000000000000, 0.000000000000000, 0.000000000000000 ) );
#232 = DIRECTION( '', ( -0.000000000000000, 1.00000000000000, 0.000000000000000 ) );
#233 = DIRECTION( '', ( 0.000000000000000, 0.000000000000000, -1.00000000000000 ) );
#234 = ORIENTED_EDGE( '', *, *, #305, .T. );
#235 = CARTESIAN_POINT( '', ( 20.0000000000000, -1.60000000000000, 0.000000000000000 ) );
#236 = DIRECTION( '', ( 0.000000000000000, 1.00000000000000, 0.000000000000000 ) );
#237 = DIRECTION( '', ( 0.000000000000000, -0.000000000000000, 1.00000000000000 ) );
#238 = ORIENTED_EDGE( '', *, *, #306, .F. );
#239 = ORIENTED_EDGE( '', *, *, #302, .T. );
#240 = CARTESIAN_POINT( '', ( 0.000000000000000, -2.00000000000000, 0.000000000000000 ) );
#241 = DIRECTION( '', ( -0.000000000000000, 1.00000000000000, 0.000000000000000 ) );
#242 = DIRECTION( '', ( 0.000000000000000, 0.000000000000000, -1.00000000000000 ) );
#243 = ORIENTED_EDGE( '', *, *, #307, .F. );
#244 = ORIENTED_EDGE( '', *, *, #306, .T. );
#245 = CARTESIAN_POINT( '', ( 34.0000000000000, -2.00000000000000, 0.000000000000000 ) );
#246 = DIRECTION( '', ( 0.000000000000000, 1.00000000000000, 0.000000000000000 ) );
#247 = DIRECTION( '', ( 0.000000000000000, -0.000000000000000, 1.00000000000000 ) );
#248 = ORIENTED_EDGE( '', *, *, #305, .F. );
#249 = ORIENTED_EDGE( '', *, *, #307, .T. );
#250 = CARTESIAN_POINT( '', ( 0.000000000000000, -2.00000000000000, 0.000000000000000 ) );
#251 = DIRECTION( '', ( -0.000000000000000, 1.00000000000000, 0.000000000000000 ) );
#252 = DIRECTION( '', ( 0.000000000000000, 0.000000000000000, -1.00000000000000 ) );
#253 = VERTEX_POINT( '', #308 );
#254 = ORIENTED_EDGE( '', *, *, #309, .F. );
#255 = CARTESIAN_POINT( '', ( -1.30104260698261E-15, 15.1000000000000, 0.000000000000000 ) );
#256 = DIRECTION( '', ( 0.000000000000000, -1.00000000000000, 0.000000000000000 ) );
#257 = DIRECTION( '', ( -1.00000000000000, 0.000000000000000, 0.000000000000000 ) );
#258 = ORIENTED_EDGE( '', *, *, #310, .F. );
#259 = ORIENTED_EDGE( '', *, *, #309, .T. );
#260 = CARTESIAN_POINT( '', ( 0.000000000000000, 15.1000000000000, 0.000000000000000 ) );
#261 = DIRECTION( '', ( -0.000000000000000, -1.00000000000000, -0.000000000000000 ) );
#262 = DIRECTION( '', ( 0.000000000000000, 0.000000000000000, -1.00000000000000 ) );
#263 = ORIENTED_EDGE( '', *, *, #311, .F. );
#264 = ORIENTED_EDGE( '', *, *, #310, .T. );
#265 = CARTESIAN_POINT( '', ( 0.000000000000000, 17.5000000000000, 0.000000000000000 ) );
#266 = DIRECTION( '', ( -0.000000000000000, 1.00000000000000, 0.000000000000000 ) );
#267 = DIRECTION( '', ( 0.000000000000000, -0.000000000000000, 1.00000000000000 ) );
#268 = ORIENTED_EDGE( '', *, *, #312, .F. );
#269 = ORIENTED_EDGE( '', *, *, #311, .T. );
#270 = CARTESIAN_POINT( '', ( 7.49999999999999, 18.0000000000000, 0.000000000000000 ) );
#271 = DIRECTION( '', ( 0.000000000000000, -1.00000000000000, -0.000000000000000 ) );
#272 = DIRECTION( '', ( 0.000000000000000, 0.000000000000000, -1.00000000000000 ) );
#273 = ORIENTED_EDGE( '', *, *, #312, .T. );
#274 = ORIENTED_EDGE( '', *, *, #313, .F. );
#275 = ORIENTED_EDGE( '', *, *, #313, .T. );
#276 = ORIENTED_EDGE( '', *, *, #314, .F. );
#277 = CARTESIAN_POINT( '', ( 0.000000000000000, 4.35524800811109, 0.000000000000000 ) );
#278 = DIRECTION( '', ( 0.000000000000000, -1.00000000000000, -0.000000000000000 ) );
#279 = DIRECTION( '', ( 0.000000000000000, 0.000000000000000, -1.00000000000000 ) );
#280 = ORIENTED_EDGE( '', *, *, #315, .F. );
#281 = ORIENTED_EDGE( '', *, *, #314, .T. );
#282 = CARTESIAN_POINT( '', ( 0.000000000000000, 4.66908439102245, 0.000000000000000 ) );
#283 = DIRECTION( '', ( -0.000000000000000, -1.00000000000000, -0.000000000000000 ) );
#284 = DIRECTION( '', ( 0.000000000000000, 0.000000000000000, -1.00000000000000 ) );
#285 = ORIENTED_EDGE( '', *, *, #304, .F. );
#286 = ORIENTED_EDGE( '', *, *, #315, .T. );
#287 = CARTESIAN_POINT( '', ( 39.5000000000000, 0.000000000000000, 0.000000000000000 ) );
#288 = DIRECTION( '', ( 0.000000000000000, 1.00000000000000, 0.000000000000000 ) );
#289 = DIRECTION( '', ( 0.000000000000000, -0.000000000000000, 1.00000000000000 ) );
#290 = EDGE_LOOP( '', ( #316 ) );
#291 = EDGE_LOOP( '', ( #317 ) );
#292 = AXIS2_PLACEMENT_3D( '', #318, #319, #320 );
#293 = EDGE_LOOP( '', ( #321 ) );
#294 = EDGE_LOOP( '', ( #322 ) );
#295 = AXIS2_PLACEMENT_3D( '', #323, #324, #325 );
#296 = EDGE_LOOP( '', ( #326 ) );
#297 = EDGE_LOOP( '', ( #327 ) );
#298 = AXIS2_PLACEMENT_3D( '', #328, #329, #330 );
#299 = EDGE_LOOP( '', ( #331 ) );
#300 = EDGE_LOOP( '', ( #332 ) );
#301 = AXIS2_PLACEMENT_3D( '', #333, #334, #335 );
#302 = EDGE_CURVE( '', #336, #336, #337, .T. );
#303 = EDGE_CURVE( '', #338, #338, #339, .T. );
#304 = EDGE_CURVE( '', #340, #340, #341, .T. );
#305 = EDGE_CURVE( '', #342, #342, #343, .T. );
#306 = EDGE_CURVE( '', #344, #344, #345, .T. );
#307 = EDGE_CURVE( '', #346, #346, #347, .T. );
#308 = CARTESIAN_POINT( '', ( -1.76640839065860E-15, 7.50000000000000, 0.000000000000000 ) );
#309 = EDGE_CURVE( '', #348, #348, #349, .T. );
#310 = EDGE_CURVE( '', #350, #350, #351, .T. );
#311 = EDGE_CURVE( '', #352, #352, #353, .T. );
#312 = EDGE_CURVE( '', #354, #354, #355, .T. );
#313 = EDGE_CURVE( '', #356, #356, #357, .T. );
#314 = EDGE_CURVE( '', #358, #358, #359, .T. );
#315 = EDGE_CURVE( '', #360, #360, #361, .T. );
#316 = ORIENTED_EDGE( '', *, *, #362, .F. );
#317 = ORIENTED_EDGE( '', *, *, #363, .T. );
#318 = CARTESIAN_POINT( '', ( 0.000000000000000, 0.000000000000000, 0.000000000000000 ) );
#319 = DIRECTION( '', ( -0.000000000000000, 1.00000000000000, 0.000000000000000 ) );
#320 = DIRECTION( '', ( 0.000000000000000, 0.000000000000000, -1.00000000000000 ) );
#321 = ORIENTED_EDGE( '', *, *, #363, .F. );
#322 = ORIENTED_EDGE( '', *, *, #364, .T. );
#323 = CARTESIAN_POINT( '', ( 34.5000000000000, 5.00000000000000, 0.000000000000000 ) );
#324 = DIRECTION( '', ( 0.000000000000000, 1.00000000000000, 0.000000000000000 ) );
#325 = DIRECTION( '', ( 0.000000000000000, -0.000000000000000, 1.00000000000000 ) );
#326 = ORIENTED_EDGE( '', *, *, #364, .F. );
#327 = ORIENTED_EDGE( '', *, *, #365, .T. );
#328 = CARTESIAN_POINT( '', ( 0.000000000000000, -2.00000000000000, 0.000000000000000 ) );
#329 = DIRECTION( '', ( -0.000000000000000, 1.00000000000000, 0.000000000000000 ) );
#330 = DIRECTION( '', ( 0.000000000000000, 0.000000000000000, -1.00000000000000 ) );
#331 = ORIENTED_EDGE( '', *, *, #365, .F. );
#332 = ORIENTED_EDGE( '', *, *, #362, .T. );
#333 = CARTESIAN_POINT( '', ( 0.000000000000000, 0.500000000000000, 0.000000000000000 ) );
#334 = DIRECTION( '', ( 0.000000000000000, -1.00000000000000, -0.000000000000000 ) );
#335 = DIRECTION( '', ( 0.000000000000000, 0.000000000000000, -1.00000000000000 ) );
#336 = VERTEX_POINT( '', #366 );
#337 = CIRCLE( '', #367, 34.0000000000000 );
#338 = VERTEX_POINT( '', #368 );
#339 = CIRCLE( '', #369, 34.5000000000000 );
#340 = VERTEX_POINT( '', #370 );
#341 = CIRCLE( '', #371, 34.5000000000000 );
#342 = VERTEX_POINT( '', #372 );
#343 = CIRCLE( '', #373, 20.0000000000000 );
#344 = VERTEX_POINT( '', #374 );
#345 = CIRCLE( '', #375, 34.0000000000000 );
#346 = VERTEX_POINT( '', #376 );
#347 = CIRCLE( '', #377, 20.0000000000000 );
#348 = VERTEX_POINT( '', #378 );
#349 = CIRCLE( '', #379, 7.60000000000000 );
#350 = VERTEX_POINT( '', #380 );
#351 = CIRCLE( '', #381, 7.00000000000000 );
#352 = VERTEX_POINT( '', #382 );
#353 = CIRCLE( '', #383, 7.50000000000000 );
#354 = VERTEX_POINT( '', #384 );
#355 = CIRCLE( '', #385, 9.72389801520000 );
#356 = VERTEX_POINT( '', #386 );
#357 = CIRCLE( '', #387, 37.6073649481000 );
#358 = VERTEX_POINT( '', #388 );
#359 = CIRCLE( '', #389, 39.1325350891000 );
#360 = VERTEX_POINT( '', #390 );
#361 = CIRCLE( '', #391, 39.5000000000000 );
#362 = EDGE_CURVE( '', #392, #392, #393, .T. );
#363 = EDGE_CURVE( '', #394, #394, #395, .T. );
#364 = EDGE_CURVE( '', #396, #396, #397, .T. );
#365 = EDGE_CURVE( '', #398, #398, #399, .T. );
#366 = CARTESIAN_POINT( '', ( 0.000000000000000, 5.00000000000000, -34.0000000000000 ) );
#367 = AXIS2_PLACEMENT_3D( '', #400, #401, #402 );
#368 = CARTESIAN_POINT( '', ( 0.000000000000000, 5.00000000000000, -34.5000000000000 ) );
#369 = AXIS2_PLACEMENT_3D( '', #403, #404, #405 );
#370 = CARTESIAN_POINT( '', ( 0.000000000000000, 0.000000000000000, -34.5000000000000 ) );
#371 = AXIS2_PLACEMENT_3D( '', #406, #407, #408 );
#372 = CARTESIAN_POINT( '', ( 0.000000000000000, -1.60000000000000, -20.0000000000000 ) );
#373 = AXIS2_PLACEMENT_3D( '', #409, #410, #411 );
#374 = CARTESIAN_POINT( '', ( 0.000000000000000, -2.00000000000000, -34.0000000000000 ) );
#375 = AXIS2_PLACEMENT_3D( '', #412, #413, #414 );
#376 = CARTESIAN_POINT( '', ( 0.000000000000000, -2.00000000000000, -20.0000000000000 ) );
#377 = AXIS2_PLACEMENT_3D( '', #415, #416, #417 );
#378 = CARTESIAN_POINT( '', ( 0.000000000000000, 15.1000000000000, -7.60000000000000 ) );
#379 = AXIS2_PLACEMENT_3D( '', #418, #419, #420 );
#380 = CARTESIAN_POINT( '', ( 0.000000000000000, 17.5000000000000, -7.00000000000000 ) );
#381 = AXIS2_PLACEMENT_3D( '', #421, #422, #423 );
#382 = CARTESIAN_POINT( '', ( 0.000000000000000, 18.0000000000000, -7.49999999999999 ) );
#383 = AXIS2_PLACEMENT_3D( '', #424, #425, #426 );
#384 = CARTESIAN_POINT( '', ( 0.000000000000000, 18.0000000000000, -9.72389801515582 ) );
#385 = AXIS2_PLACEMENT_3D( '', #427, #428, #429 );
#386 = CARTESIAN_POINT( '', ( 0.000000000000000, 7.50740563741457, -37.6073649480992 ) );
#387 = AXIS2_PLACEMENT_3D( '', #430, #431, #432 );
#388 = CARTESIAN_POINT( '', ( 0.000000000000000, 4.66908439102245, -39.1325350891183 ) );
#389 = AXIS2_PLACEMENT_3D( '', #433, #434, #435 );
#390 = CARTESIAN_POINT( '', ( 0.000000000000000, 0.000000000000000, -39.5000000000000 ) );
#391 = AXIS2_PLACEMENT_3D( '', #436, #437, #438 );
#392 = VERTEX_POINT( '', #439 );
#393 = CIRCLE( '', #440, 7.40000000000000 );
#394 = VERTEX_POINT( '', #441 );
#395 = CIRCLE( '', #442, 7.40000000000000 );
#396 = VERTEX_POINT( '', #443 );
#397 = CIRCLE( '', #444, 7.75000000000000 );
#398 = VERTEX_POINT( '', #445 );
#399 = CIRCLE( '', #446, 7.75000000000000 );
#400 = CARTESIAN_POINT( '', ( 0.000000000000000, 5.00000000000000, 0.000000000000000 ) );
#401 = DIRECTION( '', ( 0.000000000000000, -1.00000000000000, -0.000000000000000 ) );
#402 = DIRECTION( '', ( 0.000000000000000, 0.000000000000000, -1.00000000000000 ) );
#403 = CARTESIAN_POINT( '', ( 0.000000000000000, 5.00000000000000, 0.000000000000000 ) );
#404 = DIRECTION( '', ( 0.000000000000000, -1.00000000000000, -0.000000000000000 ) );
#405 = DIRECTION( '', ( 0.000000000000000, 0.000000000000000, -1.00000000000000 ) );
#406 = CARTESIAN_POINT( '', ( 0.000000000000000, 0.000000000000000, 0.000000000000000 ) );
#407 = DIRECTION( '', ( 0.000000000000000, -1.00000000000000, -0.000000000000000 ) );
#408 = DIRECTION( '', ( 0.000000000000000, 0.000000000000000, -1.00000000000000 ) );
#409 = CARTESIAN_POINT( '', ( 0.000000000000000, -1.60000000000000, 0.000000000000000 ) );
#410 = DIRECTION( '', ( 0.000000000000000, -1.00000000000000, -0.000000000000000 ) );
#411 = DIRECTION( '', ( 0.000000000000000, 0.000000000000000, -1.00000000000000 ) );
#412 = CARTESIAN_POINT( '', ( 0.000000000000000, -2.00000000000000, 0.000000000000000 ) );
#413 = DIRECTION( '', ( 0.000000000000000, -1.00000000000000, -0.000000000000000 ) );
#414 = DIRECTION( '', ( 0.000000000000000, 0.000000000000000, -1.00000000000000 ) );
#415 = CARTESIAN_POINT( '', ( 0.000000000000000, -2.00000000000000, 0.000000000000000 ) );
#416 = DIRECTION( '', ( 0.000000000000000, -1.00000000000000, -0.000000000000000 ) );
#417 = DIRECTION( '', ( 0.000000000000000, 0.000000000000000, -1.00000000000000 ) );
#418 = CARTESIAN_POINT( '', ( 0.000000000000000, 15.1000000000000, 0.000000000000000 ) );
#419 = DIRECTION( '', ( 0.000000000000000, -1.00000000000000, -0.000000000000000 ) );
#420 = DIRECTION( '', ( 0.000000000000000, 0.000000000000000, -1.00000000000000 ) );
#421 = CARTESIAN_POINT( '', ( 0.000000000000000, 17.5000000000000, 0.000000000000000 ) );
#422 = DIRECTION( '', ( 0.000000000000000, -1.00000000000000, -0.000000000000000 ) );
#423 = DIRECTION( '', ( 0.000000000000000, 0.000000000000000, -1.00000000000000 ) );
#424 = CARTESIAN_POINT( '', ( 0.000000000000000, 18.0000000000000, 0.000000000000000 ) );
#425 = DIRECTION( '', ( 0.000000000000000, -1.00000000000000, -0.000000000000000 ) );
#426 = DIRECTION( '', ( 0.000000000000000, 0.000000000000000, -1.00000000000000 ) );
#427 = CARTESIAN_POINT( '', ( 0.000000000000000, 18.0000000000000, 0.000000000000000 ) );
#428 = DIRECTION( '', ( 0.000000000000000, -1.00000000000000, -0.000000000000000 ) );
#429 = DIRECTION( '', ( 0.000000000000000, 0.000000000000000, -1.00000000000000 ) );
#430 = CARTESIAN_POINT( '', ( 0.000000000000000, 7.50740563741457, 0.000000000000000 ) );
#431 = DIRECTION( '', ( 0.000000000000000, -1.00000000000000, -0.000000000000000 ) );
#432 = DIRECTION( '', ( 0.000000000000000, 0.000000000000000, -1.00000000000000 ) );
#433 = CARTESIAN_POINT( '', ( 0.000000000000000, 4.66908439102245, 0.000000000000000 ) );
#434 = DIRECTION( '', ( 0.000000000000000, -1.00000000000000, -0.000000000000000 ) );
#435 = DIRECTION( '', ( 0.000000000000000, 0.000000000000000, -1.00000000000000 ) );
#436 = CARTESIAN_POINT( '', ( 0.000000000000000, 0.000000000000000, 0.000000000000000 ) );
#437 = DIRECTION( '', ( 0.000000000000000, -1.00000000000000, -0.000000000000000 ) );
#438 = DIRECTION( '', ( 0.000000000000000, 0.000000000000000, -1.00000000000000 ) );
#439 = CARTESIAN_POINT( '', ( 0.000000000000000, 0.500000000000000, -7.40000000000000 ) );
#440 = AXIS2_PLACEMENT_3D( '', #447, #448, #449 );
#441 = CARTESIAN_POINT( '', ( 0.000000000000000, 5.00000000000000, -7.40000000000000 ) );
#442 = AXIS2_PLACEMENT_3D( '', #450, #451, #452 );
#443 = CARTESIAN_POINT( '', ( 0.000000000000000, 5.00000000000000, -7.75000000000000 ) );
#444 = AXIS2_PLACEMENT_3D( '', #453, #454, #455 );
#445 = CARTESIAN_POINT( '', ( 0.000000000000000, 0.500000000000000, -7.75000000000000 ) );
#446 = AXIS2_PLACEMENT_3D( '', #456, #457, #458 );
#447 = CARTESIAN_POINT( '', ( 0.000000000000000, 0.500000000000000, 0.000000000000000 ) );
#448 = DIRECTION( '', ( 0.000000000000000, -1.00000000000000, -0.000000000000000 ) );
#449 = DIRECTION( '', ( 0.000000000000000, 0.000000000000000, -1.00000000000000 ) );
#450 = CARTESIAN_POINT( '', ( 0.000000000000000, 5.00000000000000, 0.000000000000000 ) );
#451 = DIRECTION( '', ( 0.000000000000000, -1.00000000000000, -0.000000000000000 ) );
#452 = DIRECTION( '', ( 0.000000000000000, 0.000000000000000, -1.00000000000000 ) );
#453 = CARTESIAN_POINT( '', ( 0.000000000000000, 5.00000000000000, 0.000000000000000 ) );
#454 = DIRECTION( '', ( 0.000000000000000, -1.00000000000000, -0.000000000000000 ) );
#455 = DIRECTION( '', ( 0.000000000000000, 0.000000000000000, -1.00000000000000 ) );
#456 = CARTESIAN_POINT( '', ( 0.000000000000000, 0.500000000000000, 0.000000000000000 ) );
#457 = DIRECTION( '', ( 0.000000000000000, -1.00000000000000, -0.000000000000000 ) );
#458 = DIRECTION( '', ( 0.000000000000000, 0.000000000000000, -1.00000000000000 ) );
ENDSEC;
END-ISO-10303-21;
