ISO-10303-21;
HEADER;
FILE_DESCRIPTION( ( 'STEP AP203' ), '1' );
FILE_NAME( 'p:/temp/worker_64/temp/exporttempdir_888_868_83XRq/format_0/093WU401VS01.stp', '2021-11-22T11:59:58', ( 'License CC BY-ND 4.0' ), ( 'CADENAS' ), ' ', 'PARTsolutions', ' ' );
FILE_SCHEMA( ( 'CONFIG_CONTROL_DESIGN' ) );
ENDSEC;
DATA;
#1 = DESIGN_CONTEXT( '', #27, 'design' );
#2 = APPLICATION_PROTOCOL_DEFINITION( 'international standard', 'config_control_design', 1994, #27 );
#3 = PRODUCT_CATEGORY_RELATIONSHIP( 'NONE', 'NONE', #28, #29 );
#4 = DATE_AND_TIME( #30, #31 );
#5 = DATE_TIME_ROLE( 'creation_date' );
#6 = DATE_TIME_ROLE( 'classification_date' );
#7 = PERSON_AND_ORGANIZATION_ROLE( 'creator' );
#8 = PERSON_AND_ORGANIZATION_ROLE( 'design_supplier' );
#9 = PERSON_AND_ORGANIZATION_ROLE( 'classification_officer' );
#10 = PERSON_AND_ORGANIZATION_ROLE( 'design_owner' );
#11 = APPROVAL_PERSON_ORGANIZATION( #32, #33, #34 );
#12 = APPROVAL_DATE_TIME( #4, #33 );
#13 = CC_DESIGN_APPROVAL( #33, ( #35, #36, #37 ) );
#14 = CC_DESIGN_DATE_AND_TIME_ASSIGNMENT( #4, #5, ( #37 ) );
#15 = CC_DESIGN_DATE_AND_TIME_ASSIGNMENT( #4, #6, ( #35 ) );
#16 = CC_DESIGN_PERSON_AND_ORGANIZATION_ASSIGNMENT( #32, #10, ( #38 ) );
#17 = CC_DESIGN_PERSON_AND_ORGANIZATION_ASSIGNMENT( #32, #7, ( #37 ) );
#18 = CC_DESIGN_PERSON_AND_ORGANIZATION_ASSIGNMENT( #32, #7, ( #36 ) );
#19 = CC_DESIGN_PERSON_AND_ORGANIZATION_ASSIGNMENT( #32, #8, ( #36 ) );
#20 = CC_DESIGN_SECURITY_CLASSIFICATION( #35, ( #36 ) );
#21 = CC_DESIGN_PERSON_AND_ORGANIZATION_ASSIGNMENT( #32, #9, ( #35 ) );
#22 = SHAPE_DEFINITION_REPRESENTATION( #39, #40 );
#23 =  ( GEOMETRIC_REPRESENTATION_CONTEXT( 3 )GLOBAL_UNCERTAINTY_ASSIGNED_CONTEXT( ( #43 ) )GLOBAL_UNIT_ASSIGNED_CONTEXT( ( #45, #46, #47 ) )REPRESENTATION_CONTEXT( 'NONE', 'WORKSPACE' ) );
#27 = APPLICATION_CONTEXT( 'configuration controlled 3D designs of mechanical parts and assemblies' );
#28 = PRODUCT_CATEGORY( 'part', 'NONE' );
#29 = PRODUCT_RELATED_PRODUCT_CATEGORY( 'detail', ' ', ( #38 ) );
#30 = CALENDAR_DATE( 2021, 22, 10 );
#31 = LOCAL_TIME( 12, 59, 58.0000000000000, #49 );
#32 = PERSON_AND_ORGANIZATION( #50, #51 );
#33 = APPROVAL( #52, 'SOLID MODEL' );
#34 = APPROVAL_ROLE( 'APPROVED' );
#35 = SECURITY_CLASSIFICATION( '', '', #53 );
#36 = PRODUCT_DEFINITION_FORMATION_WITH_SPECIFIED_SOURCE( ' ', 'NONE', #38, .NOT_KNOWN. );
#37 = PRODUCT_DEFINITION( 'NONE', 'NONE', #36, #1 );
#38 = PRODUCT( '_093WU401VS01', '_093WU401VS01', 'PART-_093WU401VS01-DESC', ( #54 ) );
#39 = PRODUCT_DEFINITION_SHAPE( 'NONE', 'NONE', #37 );
#40 = ADVANCED_BREP_SHAPE_REPRESENTATION( '_093WU401VS01', ( #55, #56 ), #23 );
#43 = UNCERTAINTY_MEASURE_WITH_UNIT( LENGTH_MEASURE( 0.00100000000000000 ), #45, '', '' );
#45 =  ( CONVERSION_BASED_UNIT( 'MILLIMETRE', #59 )LENGTH_UNIT(  )NAMED_UNIT( #62 ) );
#46 =  ( NAMED_UNIT( #64 )PLANE_ANGLE_UNIT(  )SI_UNIT( $, .RADIAN. ) );
#47 =  ( NAMED_UNIT( #64 )SI_UNIT( $, .STERADIAN. )SOLID_ANGLE_UNIT(  ) );
#49 = COORDINATED_UNIVERSAL_TIME_OFFSET( 1, 0, .AHEAD. );
#50 = PERSON( '', 'UNSPECIFIED', $, $, $, $ );
#51 = ORGANIZATION( 'UNSPECIFIED', 'UNSPECIFIED', 'UNSPECIFIED' );
#52 = APPROVAL_STATUS( 'approved' );
#53 = SECURITY_CLASSIFICATION_LEVEL( 'unclassified' );
#54 = MECHANICAL_CONTEXT( '', #27, 'mechanical' );
#55 = MANIFOLD_SOLID_BREP( '_093WU401VS01', #70 );
#56 = AXIS2_PLACEMENT_3D( '', #71, #72, #73 );
#59 = LENGTH_MEASURE_WITH_UNIT( LENGTH_MEASURE( 1.00000000000000 ), #74 );
#62 = DIMENSIONAL_EXPONENTS( 1.00000000000000, 0.000000000000000, 0.000000000000000, 0.000000000000000, 0.000000000000000, 0.000000000000000, 0.000000000000000 );
#64 = DIMENSIONAL_EXPONENTS( 0.000000000000000, 0.000000000000000, 0.000000000000000, 0.000000000000000, 0.000000000000000, 0.000000000000000, 0.000000000000000 );
#70 = CLOSED_SHELL( '', ( #75, #76, #77, #78, #79, #80, #81, #82, #83, #84, #85, #86 ) );
#71 = CARTESIAN_POINT( '', ( 0.000000000000000, 0.000000000000000, 0.000000000000000 ) );
#72 = DIRECTION( '', ( 0.000000000000000, 0.000000000000000, 1.00000000000000 ) );
#73 = DIRECTION( '', ( 1.00000000000000, 0.000000000000000, 0.000000000000000 ) );
#74 =  ( LENGTH_UNIT(  )NAMED_UNIT( #62 )SI_UNIT( .MILLI., .METRE. ) );
#75 = ADVANCED_FACE( '', ( #88, #89 ), #90, .F. );
#76 = ADVANCED_FACE( '', ( #91 ), #92, .T. );
#77 = ADVANCED_FACE( '', ( #93 ), #94, .F. );
#78 = ADVANCED_FACE( '', ( #95, #96 ), #97, .F. );
#79 = ADVANCED_FACE( '', ( #98 ), #99, .F. );
#80 = ADVANCED_FACE( '', ( #100, #101 ), #102, .F. );
#81 = ADVANCED_FACE( '', ( #103, #104 ), #105, .F. );
#82 = ADVANCED_FACE( '', ( #106 ), #107, .F. );
#83 = ADVANCED_FACE( '', ( #108, #109 ), #110, .F. );
#84 = ADVANCED_FACE( '', ( #111, #112 ), #113, .F. );
#85 = ADVANCED_FACE( '', ( #114, #115 ), #116, .F. );
#86 = ADVANCED_FACE( '', ( #117, #118 ), #119, .F. );
#88 = FACE_BOUND( '', #120, .T. );
#89 = FACE_OUTER_BOUND( '', #121, .T. );
#90 = PLANE( '', #122 );
#91 = FACE_OUTER_BOUND( '', #123, .T. );
#92 = PLANE( '', #124 );
#93 = FACE_OUTER_BOUND( '', #125, .T. );
#94 = PLANE( '', #126 );
#95 = FACE_BOUND( '', #127, .T. );
#96 = FACE_OUTER_BOUND( '', #128, .T. );
#97 = PLANE( '', #129 );
#98 = FACE_OUTER_BOUND( '', #130, .T. );
#99 = PLANE( '', #131 );
#100 = FACE_OUTER_BOUND( '', #132, .T. );
#101 = FACE_OUTER_BOUND( '', #133, .T. );
#102 = CYLINDRICAL_SURFACE( '', #134, 4.20000000000000 );
#103 = FACE_OUTER_BOUND( '', #135, .T. );
#104 = FACE_BOUND( '', #136, .T. );
#105 = CONICAL_SURFACE( '', #137, 4.20000000000000, 0.779933736900000 );
#106 = FACE_OUTER_BOUND( '', #138, .T. );
#107 = PLANE( '', #139 );
#108 = FACE_BOUND( '', #140, .T. );
#109 = FACE_OUTER_BOUND( '', #141, .T. );
#110 = CONICAL_SURFACE( '', #142, 8.75000000000000, 0.779933736900000 );
#111 = FACE_OUTER_BOUND( '', #143, .T. );
#112 = FACE_OUTER_BOUND( '', #144, .T. );
#113 = CYLINDRICAL_SURFACE( '', #145, 4.20000000000000 );
#114 = FACE_BOUND( '', #146, .T. );
#115 = FACE_OUTER_BOUND( '', #147, .T. );
#116 = PLANE( '', #148 );
#117 = FACE_BOUND( '', #149, .T. );
#118 = FACE_OUTER_BOUND( '', #150, .T. );
#119 = PLANE( '', #151 );
#120 = EDGE_LOOP( '', ( #152 ) );
#121 = EDGE_LOOP( '', ( #153, #154, #155, #156 ) );
#122 = AXIS2_PLACEMENT_3D( '', #157, #158, #159 );
#123 = EDGE_LOOP( '', ( #160, #161, #162, #163, #164, #165 ) );
#124 = AXIS2_PLACEMENT_3D( '', #166, #167, #168 );
#125 = EDGE_LOOP( '', ( #169, #170, #171, #172 ) );
#126 = AXIS2_PLACEMENT_3D( '', #173, #174, #175 );
#127 = EDGE_LOOP( '', ( #176 ) );
#128 = EDGE_LOOP( '', ( #177, #178, #179, #180 ) );
#129 = AXIS2_PLACEMENT_3D( '', #181, #182, #183 );
#130 = EDGE_LOOP( '', ( #184, #185, #186, #187 ) );
#131 = AXIS2_PLACEMENT_3D( '', #188, #189, #190 );
#132 = EDGE_LOOP( '', ( #191 ) );
#133 = EDGE_LOOP( '', ( #192 ) );
#134 = AXIS2_PLACEMENT_3D( '', #193, #194, #195 );
#135 = EDGE_LOOP( '', ( #196 ) );
#136 = EDGE_LOOP( '', ( #197 ) );
#137 = AXIS2_PLACEMENT_3D( '', #198, #199, #200 );
#138 = EDGE_LOOP( '', ( #201, #202, #203, #204, #205, #206 ) );
#139 = AXIS2_PLACEMENT_3D( '', #207, #208, #209 );
#140 = EDGE_LOOP( '', ( #210 ) );
#141 = EDGE_LOOP( '', ( #211 ) );
#142 = AXIS2_PLACEMENT_3D( '', #212, #213, #214 );
#143 = EDGE_LOOP( '', ( #215 ) );
#144 = EDGE_LOOP( '', ( #216 ) );
#145 = AXIS2_PLACEMENT_3D( '', #217, #218, #219 );
#146 = EDGE_LOOP( '', ( #220 ) );
#147 = EDGE_LOOP( '', ( #221, #222, #223, #224 ) );
#148 = AXIS2_PLACEMENT_3D( '', #225, #226, #227 );
#149 = EDGE_LOOP( '', ( #228 ) );
#150 = EDGE_LOOP( '', ( #229, #230, #231, #232 ) );
#151 = AXIS2_PLACEMENT_3D( '', #233, #234, #235 );
#152 = ORIENTED_EDGE( '', *, *, #236, .F. );
#153 = ORIENTED_EDGE( '', *, *, #237, .T. );
#154 = ORIENTED_EDGE( '', *, *, #238, .F. );
#155 = ORIENTED_EDGE( '', *, *, #239, .F. );
#156 = ORIENTED_EDGE( '', *, *, #240, .T. );
#157 = CARTESIAN_POINT( '', ( 40.0000000000000, 40.0000000000000, 5.00000000000000 ) );
#158 = DIRECTION( '', ( 0.000000000000000, 0.000000000000000, -1.00000000000000 ) );
#159 = DIRECTION( '', ( -1.00000000000000, 0.000000000000000, 0.000000000000000 ) );
#160 = ORIENTED_EDGE( '', *, *, #241, .T. );
#161 = ORIENTED_EDGE( '', *, *, #242, .T. );
#162 = ORIENTED_EDGE( '', *, *, #243, .T. );
#163 = ORIENTED_EDGE( '', *, *, #244, .T. );
#164 = ORIENTED_EDGE( '', *, *, #245, .T. );
#165 = ORIENTED_EDGE( '', *, *, #239, .T. );
#166 = CARTESIAN_POINT( '', ( 40.0000000000000, 0.000000000000000, 0.000000000000000 ) );
#167 = DIRECTION( '', ( 1.00000000000000, 0.000000000000000, -0.000000000000000 ) );
#168 = DIRECTION( '', ( -0.000000000000000, 0.000000000000000, -1.00000000000000 ) );
#169 = ORIENTED_EDGE( '', *, *, #246, .T. );
#170 = ORIENTED_EDGE( '', *, *, #240, .F. );
#171 = ORIENTED_EDGE( '', *, *, #245, .F. );
#172 = ORIENTED_EDGE( '', *, *, #247, .T. );
#173 = CARTESIAN_POINT( '', ( 40.0000000000000, 40.0000000000000, 0.000000000000000 ) );
#174 = DIRECTION( '', ( 0.000000000000000, -1.00000000000000, 0.000000000000000 ) );
#175 = DIRECTION( '', ( 0.000000000000000, 0.000000000000000, -1.00000000000000 ) );
#176 = ORIENTED_EDGE( '', *, *, #248, .T. );
#177 = ORIENTED_EDGE( '', *, *, #249, .T. );
#178 = ORIENTED_EDGE( '', *, *, #250, .F. );
#179 = ORIENTED_EDGE( '', *, *, #241, .F. );
#180 = ORIENTED_EDGE( '', *, *, #238, .T. );
#181 = CARTESIAN_POINT( '', ( 40.0000000000000, 5.00000000000000, 5.00000000000000 ) );
#182 = DIRECTION( '', ( 0.000000000000000, -1.00000000000000, 0.000000000000000 ) );
#183 = DIRECTION( '', ( 0.000000000000000, 0.000000000000000, -1.00000000000000 ) );
#184 = ORIENTED_EDGE( '', *, *, #251, .T. );
#185 = ORIENTED_EDGE( '', *, *, #252, .F. );
#186 = ORIENTED_EDGE( '', *, *, #242, .F. );
#187 = ORIENTED_EDGE( '', *, *, #250, .T. );
#188 = CARTESIAN_POINT( '', ( 40.0000000000000, 5.00000000000000, 40.0000000000000 ) );
#189 = DIRECTION( '', ( 0.000000000000000, 0.000000000000000, -1.00000000000000 ) );
#190 = DIRECTION( '', ( -1.00000000000000, 0.000000000000000, 0.000000000000000 ) );
#191 = ORIENTED_EDGE( '', *, *, #253, .T. );
#192 = ORIENTED_EDGE( '', *, *, #254, .F. );
#193 = CARTESIAN_POINT( '', ( 20.0000000000000, 20.0000000000000, 5.00000000000000 ) );
#194 = DIRECTION( '', ( -0.000000000000000, 0.000000000000000, -1.00000000000000 ) );
#195 = DIRECTION( '', ( 1.00000000000000, 0.000000000000000, 0.000000000000000 ) );
#196 = ORIENTED_EDGE( '', *, *, #236, .T. );
#197 = ORIENTED_EDGE( '', *, *, #253, .F. );
#198 = CARTESIAN_POINT( '', ( 20.0000000000000, 20.0000000000000, 0.400000000000000 ) );
#199 = DIRECTION( '', ( -0.000000000000000, -0.000000000000000, 1.00000000000000 ) );
#200 = DIRECTION( '', ( 1.00000000000000, 0.000000000000000, 0.000000000000000 ) );
#201 = ORIENTED_EDGE( '', *, *, #249, .F. );
#202 = ORIENTED_EDGE( '', *, *, #237, .F. );
#203 = ORIENTED_EDGE( '', *, *, #246, .F. );
#204 = ORIENTED_EDGE( '', *, *, #255, .F. );
#205 = ORIENTED_EDGE( '', *, *, #256, .F. );
#206 = ORIENTED_EDGE( '', *, *, #251, .F. );
#207 = CARTESIAN_POINT( '', ( 0.000000000000000, 0.000000000000000, -0.000000000000000 ) );
#208 = DIRECTION( '', ( 1.00000000000000, 0.000000000000000, -0.000000000000000 ) );
#209 = DIRECTION( '', ( -0.000000000000000, 0.000000000000000, -1.00000000000000 ) );
#210 = ORIENTED_EDGE( '', *, *, #257, .T. );
#211 = ORIENTED_EDGE( '', *, *, #248, .F. );
#212 = CARTESIAN_POINT( '', ( 20.0000000000000, 5.00000000000000, 20.0000000000000 ) );
#213 = DIRECTION( '', ( -0.000000000000000, 1.00000000000000, 0.000000000000000 ) );
#214 = DIRECTION( '', ( 0.000000000000000, -0.000000000000000, 1.00000000000000 ) );
#215 = ORIENTED_EDGE( '', *, *, #258, .T. );
#216 = ORIENTED_EDGE( '', *, *, #257, .F. );
#217 = CARTESIAN_POINT( '', ( 20.0000000000000, 0.000000000000000, 20.0000000000000 ) );
#218 = DIRECTION( '', ( -0.000000000000000, 1.00000000000000, 0.000000000000000 ) );
#219 = DIRECTION( '', ( 0.000000000000000, 0.000000000000000, -1.00000000000000 ) );
#220 = ORIENTED_EDGE( '', *, *, #258, .F. );
#221 = ORIENTED_EDGE( '', *, *, #256, .T. );
#222 = ORIENTED_EDGE( '', *, *, #259, .F. );
#223 = ORIENTED_EDGE( '', *, *, #243, .F. );
#224 = ORIENTED_EDGE( '', *, *, #252, .T. );
#225 = CARTESIAN_POINT( '', ( 40.0000000000000, 0.000000000000000, 40.0000000000000 ) );
#226 = DIRECTION( '', ( -0.000000000000000, 1.00000000000000, 0.000000000000000 ) );
#227 = DIRECTION( '', ( 0.000000000000000, -0.000000000000000, 1.00000000000000 ) );
#228 = ORIENTED_EDGE( '', *, *, #254, .T. );
#229 = ORIENTED_EDGE( '', *, *, #255, .T. );
#230 = ORIENTED_EDGE( '', *, *, #247, .F. );
#231 = ORIENTED_EDGE( '', *, *, #244, .F. );
#232 = ORIENTED_EDGE( '', *, *, #259, .T. );
#233 = CARTESIAN_POINT( '', ( 40.0000000000000, 0.000000000000000, 0.000000000000000 ) );
#234 = DIRECTION( '', ( 0.000000000000000, 0.000000000000000, 1.00000000000000 ) );
#235 = DIRECTION( '', ( 1.00000000000000, 0.000000000000000, -0.000000000000000 ) );
#236 = EDGE_CURVE( '', #260, #260, #261, .T. );
#237 = EDGE_CURVE( '', #262, #263, #264, .T. );
#238 = EDGE_CURVE( '', #265, #263, #266, .T. );
#239 = EDGE_CURVE( '', #267, #265, #268, .T. );
#240 = EDGE_CURVE( '', #267, #262, #269, .T. );
#241 = EDGE_CURVE( '', #265, #270, #271, .T. );
#242 = EDGE_CURVE( '', #270, #272, #273, .T. );
#243 = EDGE_CURVE( '', #272, #274, #275, .T. );
#244 = EDGE_CURVE( '', #274, #276, #277, .T. );
#245 = EDGE_CURVE( '', #276, #267, #278, .T. );
#246 = EDGE_CURVE( '', #279, #262, #280, .T. );
#247 = EDGE_CURVE( '', #276, #279, #281, .T. );
#248 = EDGE_CURVE( '', #282, #282, #283, .T. );
#249 = EDGE_CURVE( '', #263, #284, #285, .T. );
#250 = EDGE_CURVE( '', #270, #284, #286, .T. );
#251 = EDGE_CURVE( '', #284, #287, #288, .T. );
#252 = EDGE_CURVE( '', #272, #287, #289, .T. );
#253 = EDGE_CURVE( '', #290, #290, #291, .T. );
#254 = EDGE_CURVE( '', #292, #292, #293, .T. );
#255 = EDGE_CURVE( '', #294, #279, #295, .T. );
#256 = EDGE_CURVE( '', #287, #294, #296, .T. );
#257 = EDGE_CURVE( '', #297, #297, #298, .T. );
#258 = EDGE_CURVE( '', #299, #299, #300, .T. );
#259 = EDGE_CURVE( '', #274, #294, #301, .T. );
#260 = VERTEX_POINT( '', #302 );
#261 = CIRCLE( '', #303, 8.75000000000000 );
#262 = VERTEX_POINT( '', #304 );
#263 = VERTEX_POINT( '', #305 );
#264 = LINE( '', #306, #307 );
#265 = VERTEX_POINT( '', #308 );
#266 = LINE( '', #309, #310 );
#267 = VERTEX_POINT( '', #311 );
#268 = LINE( '', #312, #313 );
#269 = LINE( '', #314, #315 );
#270 = VERTEX_POINT( '', #316 );
#271 = LINE( '', #317, #318 );
#272 = VERTEX_POINT( '', #319 );
#273 = LINE( '', #320, #321 );
#274 = VERTEX_POINT( '', #322 );
#275 = LINE( '', #323, #324 );
#276 = VERTEX_POINT( '', #325 );
#277 = LINE( '', #326, #327 );
#278 = LINE( '', #328, #329 );
#279 = VERTEX_POINT( '', #330 );
#280 = LINE( '', #331, #332 );
#281 = LINE( '', #333, #334 );
#282 = VERTEX_POINT( '', #335 );
#283 = CIRCLE( '', #336, 8.75000000000000 );
#284 = VERTEX_POINT( '', #337 );
#285 = LINE( '', #338, #339 );
#286 = LINE( '', #340, #341 );
#287 = VERTEX_POINT( '', #342 );
#288 = LINE( '', #343, #344 );
#289 = LINE( '', #345, #346 );
#290 = VERTEX_POINT( '', #347 );
#291 = CIRCLE( '', #348, 4.20000000000000 );
#292 = VERTEX_POINT( '', #349 );
#293 = CIRCLE( '', #350, 4.20000000000000 );
#294 = VERTEX_POINT( '', #351 );
#295 = LINE( '', #352, #353 );
#296 = LINE( '', #354, #355 );
#297 = VERTEX_POINT( '', #356 );
#298 = CIRCLE( '', #357, 4.20000000000000 );
#299 = VERTEX_POINT( '', #358 );
#300 = CIRCLE( '', #359, 4.20000000000000 );
#301 = LINE( '', #360, #361 );
#302 = CARTESIAN_POINT( '', ( 28.7500000000000, 20.0000000000000, 5.00000000000000 ) );
#303 = AXIS2_PLACEMENT_3D( '', #362, #363, #364 );
#304 = CARTESIAN_POINT( '', ( 0.000000000000000, 40.0000000000000, 5.00000000000000 ) );
#305 = CARTESIAN_POINT( '', ( 0.000000000000000, 5.00000000000000, 5.00000000000000 ) );
#306 = CARTESIAN_POINT( '', ( 0.000000000000000, 40.0000000000000, 5.00000000000000 ) );
#307 = VECTOR( '', #365, 1000.00000000000 );
#308 = CARTESIAN_POINT( '', ( 40.0000000000000, 5.00000000000000, 5.00000000000000 ) );
#309 = CARTESIAN_POINT( '', ( 40.0000000000000, 5.00000000000000, 5.00000000000000 ) );
#310 = VECTOR( '', #366, 1000.00000000000 );
#311 = CARTESIAN_POINT( '', ( 40.0000000000000, 40.0000000000000, 5.00000000000000 ) );
#312 = CARTESIAN_POINT( '', ( 40.0000000000000, 40.0000000000000, 5.00000000000000 ) );
#313 = VECTOR( '', #367, 1000.00000000000 );
#314 = CARTESIAN_POINT( '', ( 40.0000000000000, 40.0000000000000, 5.00000000000000 ) );
#315 = VECTOR( '', #368, 1000.00000000000 );
#316 = CARTESIAN_POINT( '', ( 40.0000000000000, 5.00000000000000, 40.0000000000000 ) );
#317 = CARTESIAN_POINT( '', ( 40.0000000000000, 5.00000000000000, 5.00000000000000 ) );
#318 = VECTOR( '', #369, 1000.00000000000 );
#319 = CARTESIAN_POINT( '', ( 40.0000000000000, 0.000000000000000, 40.0000000000000 ) );
#320 = CARTESIAN_POINT( '', ( 40.0000000000000, 5.00000000000000, 40.0000000000000 ) );
#321 = VECTOR( '', #370, 1000.00000000000 );
#322 = CARTESIAN_POINT( '', ( 40.0000000000000, 0.000000000000000, 0.000000000000000 ) );
#323 = CARTESIAN_POINT( '', ( 40.0000000000000, 0.000000000000000, 40.0000000000000 ) );
#324 = VECTOR( '', #371, 1000.00000000000 );
#325 = CARTESIAN_POINT( '', ( 40.0000000000000, 40.0000000000000, 0.000000000000000 ) );
#326 = CARTESIAN_POINT( '', ( 40.0000000000000, 0.000000000000000, 0.000000000000000 ) );
#327 = VECTOR( '', #372, 1000.00000000000 );
#328 = CARTESIAN_POINT( '', ( 40.0000000000000, 40.0000000000000, 0.000000000000000 ) );
#329 = VECTOR( '', #373, 1000.00000000000 );
#330 = CARTESIAN_POINT( '', ( 0.000000000000000, 40.0000000000000, 0.000000000000000 ) );
#331 = CARTESIAN_POINT( '', ( 0.000000000000000, 40.0000000000000, 0.000000000000000 ) );
#332 = VECTOR( '', #374, 1000.00000000000 );
#333 = CARTESIAN_POINT( '', ( 40.0000000000000, 40.0000000000000, 0.000000000000000 ) );
#334 = VECTOR( '', #375, 1000.00000000000 );
#335 = CARTESIAN_POINT( '', ( 20.0000000000000, 5.00000000000000, 11.2500000000000 ) );
#336 = AXIS2_PLACEMENT_3D( '', #376, #377, #378 );
#337 = CARTESIAN_POINT( '', ( 0.000000000000000, 5.00000000000000, 40.0000000000000 ) );
#338 = CARTESIAN_POINT( '', ( 0.000000000000000, 5.00000000000000, 5.00000000000000 ) );
#339 = VECTOR( '', #379, 1000.00000000000 );
#340 = CARTESIAN_POINT( '', ( 40.0000000000000, 5.00000000000000, 40.0000000000000 ) );
#341 = VECTOR( '', #380, 1000.00000000000 );
#342 = CARTESIAN_POINT( '', ( 0.000000000000000, 0.000000000000000, 40.0000000000000 ) );
#343 = CARTESIAN_POINT( '', ( 0.000000000000000, 5.00000000000000, 40.0000000000000 ) );
#344 = VECTOR( '', #381, 1000.00000000000 );
#345 = CARTESIAN_POINT( '', ( 40.0000000000000, 0.000000000000000, 40.0000000000000 ) );
#346 = VECTOR( '', #382, 1000.00000000000 );
#347 = CARTESIAN_POINT( '', ( 24.2000000000000, 20.0000000000000, 0.400000000000000 ) );
#348 = AXIS2_PLACEMENT_3D( '', #383, #384, #385 );
#349 = CARTESIAN_POINT( '', ( 24.2000000000000, 20.0000000000000, 0.000000000000000 ) );
#350 = AXIS2_PLACEMENT_3D( '', #386, #387, #388 );
#351 = CARTESIAN_POINT( '', ( 0.000000000000000, 0.000000000000000, 0.000000000000000 ) );
#352 = CARTESIAN_POINT( '', ( 0.000000000000000, 0.000000000000000, 0.000000000000000 ) );
#353 = VECTOR( '', #389, 1000.00000000000 );
#354 = CARTESIAN_POINT( '', ( 0.000000000000000, 0.000000000000000, 40.0000000000000 ) );
#355 = VECTOR( '', #390, 1000.00000000000 );
#356 = CARTESIAN_POINT( '', ( 20.0000000000000, 0.400000000000000, 15.8000000000000 ) );
#357 = AXIS2_PLACEMENT_3D( '', #391, #392, #393 );
#358 = CARTESIAN_POINT( '', ( 20.0000000000000, 0.000000000000000, 15.8000000000000 ) );
#359 = AXIS2_PLACEMENT_3D( '', #394, #395, #396 );
#360 = CARTESIAN_POINT( '', ( 40.0000000000000, 0.000000000000000, 0.000000000000000 ) );
#361 = VECTOR( '', #397, 1000.00000000000 );
#362 = CARTESIAN_POINT( '', ( 20.0000000000000, 20.0000000000000, 5.00000000000000 ) );
#363 = DIRECTION( '', ( 0.000000000000000, -0.000000000000000, 1.00000000000000 ) );
#364 = DIRECTION( '', ( 1.00000000000000, 0.000000000000000, 0.000000000000000 ) );
#365 = DIRECTION( '', ( 0.000000000000000, -1.00000000000000, 0.000000000000000 ) );
#366 = DIRECTION( '', ( -1.00000000000000, -0.000000000000000, -0.000000000000000 ) );
#367 = DIRECTION( '', ( 0.000000000000000, -1.00000000000000, 0.000000000000000 ) );
#368 = DIRECTION( '', ( -1.00000000000000, -0.000000000000000, -0.000000000000000 ) );
#369 = DIRECTION( '', ( 0.000000000000000, 0.000000000000000, 1.00000000000000 ) );
#370 = DIRECTION( '', ( 0.000000000000000, -1.00000000000000, 0.000000000000000 ) );
#371 = DIRECTION( '', ( 0.000000000000000, 0.000000000000000, -1.00000000000000 ) );
#372 = DIRECTION( '', ( 0.000000000000000, 1.00000000000000, 0.000000000000000 ) );
#373 = DIRECTION( '', ( 0.000000000000000, 0.000000000000000, 1.00000000000000 ) );
#374 = DIRECTION( '', ( 0.000000000000000, 0.000000000000000, 1.00000000000000 ) );
#375 = DIRECTION( '', ( -1.00000000000000, -0.000000000000000, -0.000000000000000 ) );
#376 = CARTESIAN_POINT( '', ( 20.0000000000000, 5.00000000000000, 20.0000000000000 ) );
#377 = DIRECTION( '', ( 0.000000000000000, -1.00000000000000, -0.000000000000000 ) );
#378 = DIRECTION( '', ( 0.000000000000000, 0.000000000000000, -1.00000000000000 ) );
#379 = DIRECTION( '', ( 0.000000000000000, 0.000000000000000, 1.00000000000000 ) );
#380 = DIRECTION( '', ( -1.00000000000000, -0.000000000000000, -0.000000000000000 ) );
#381 = DIRECTION( '', ( 0.000000000000000, -1.00000000000000, 0.000000000000000 ) );
#382 = DIRECTION( '', ( -1.00000000000000, -0.000000000000000, -0.000000000000000 ) );
#383 = CARTESIAN_POINT( '', ( 20.0000000000000, 20.0000000000000, 0.400000000000000 ) );
#384 = DIRECTION( '', ( 0.000000000000000, -0.000000000000000, 1.00000000000000 ) );
#385 = DIRECTION( '', ( 1.00000000000000, 0.000000000000000, 0.000000000000000 ) );
#386 = CARTESIAN_POINT( '', ( 20.0000000000000, 20.0000000000000, 0.000000000000000 ) );
#387 = DIRECTION( '', ( 0.000000000000000, -0.000000000000000, 1.00000000000000 ) );
#388 = DIRECTION( '', ( 1.00000000000000, 0.000000000000000, 0.000000000000000 ) );
#389 = DIRECTION( '', ( 0.000000000000000, 1.00000000000000, 0.000000000000000 ) );
#390 = DIRECTION( '', ( 0.000000000000000, 0.000000000000000, -1.00000000000000 ) );
#391 = CARTESIAN_POINT( '', ( 20.0000000000000, 0.400000000000000, 20.0000000000000 ) );
#392 = DIRECTION( '', ( 0.000000000000000, -1.00000000000000, -0.000000000000000 ) );
#393 = DIRECTION( '', ( 0.000000000000000, 0.000000000000000, -1.00000000000000 ) );
#394 = CARTESIAN_POINT( '', ( 20.0000000000000, 0.000000000000000, 20.0000000000000 ) );
#395 = DIRECTION( '', ( 0.000000000000000, -1.00000000000000, -0.000000000000000 ) );
#396 = DIRECTION( '', ( 0.000000000000000, 0.000000000000000, -1.00000000000000 ) );
#397 = DIRECTION( '', ( -1.00000000000000, -0.000000000000000, -0.000000000000000 ) );
ENDSEC;
END-ISO-10303-21;
