ISO-10303-21;
HEADER;
FILE_DESCRIPTION( ( 'STEP AP203' ), '1' );
FILE_NAME( 'p:/temp/worker_7/temp/exporttempdir_3636_929_hpMt9/format_0/093V4080S.stp', '2021-11-22T09:19:01', ( 'License CC BY-ND 4.0' ), ( 'CADENAS' ), ' ', 'PARTsolutions', ' ' );
FILE_SCHEMA( ( 'CONFIG_CONTROL_DESIGN' ) );
ENDSEC;
DATA;
#1 = DESIGN_CONTEXT( '', #27, 'design' );
#2 = APPLICATION_PROTOCOL_DEFINITION( 'international standard', 'config_control_design', 1994, #27 );
#3 = PRODUCT_CATEGORY_RELATIONSHIP( 'NONE', 'NONE', #28, #29 );
#4 = DATE_AND_TIME( #30, #31 );
#5 = DATE_TIME_ROLE( 'creation_date' );
#6 = DATE_TIME_ROLE( 'classification_date' );
#7 = PERSON_AND_ORGANIZATION_ROLE( 'creator' );
#8 = PERSON_AND_ORGANIZATION_ROLE( 'design_supplier' );
#9 = PERSON_AND_ORGANIZATION_ROLE( 'classification_officer' );
#10 = PERSON_AND_ORGANIZATION_ROLE( 'design_owner' );
#11 = APPROVAL_PERSON_ORGANIZATION( #32, #33, #34 );
#12 = APPROVAL_DATE_TIME( #4, #33 );
#13 = CC_DESIGN_APPROVAL( #33, ( #35, #36, #37 ) );
#14 = CC_DESIGN_DATE_AND_TIME_ASSIGNMENT( #4, #5, ( #37 ) );
#15 = CC_DESIGN_DATE_AND_TIME_ASSIGNMENT( #4, #6, ( #35 ) );
#16 = CC_DESIGN_PERSON_AND_ORGANIZATION_ASSIGNMENT( #32, #10, ( #38 ) );
#17 = CC_DESIGN_PERSON_AND_ORGANIZATION_ASSIGNMENT( #32, #7, ( #37 ) );
#18 = CC_DESIGN_PERSON_AND_ORGANIZATION_ASSIGNMENT( #32, #7, ( #36 ) );
#19 = CC_DESIGN_PERSON_AND_ORGANIZATION_ASSIGNMENT( #32, #8, ( #36 ) );
#20 = CC_DESIGN_SECURITY_CLASSIFICATION( #35, ( #36 ) );
#21 = CC_DESIGN_PERSON_AND_ORGANIZATION_ASSIGNMENT( #32, #9, ( #35 ) );
#22 = SHAPE_DEFINITION_REPRESENTATION( #39, #40 );
#23 =  ( GEOMETRIC_REPRESENTATION_CONTEXT( 3 )GLOBAL_UNCERTAINTY_ASSIGNED_CONTEXT( ( #43 ) )GLOBAL_UNIT_ASSIGNED_CONTEXT( ( #45, #46, #47 ) )REPRESENTATION_CONTEXT( 'NONE', 'WORKSPACE' ) );
#27 = APPLICATION_CONTEXT( 'configuration controlled 3D designs of mechanical parts and assemblies' );
#28 = PRODUCT_CATEGORY( 'part', 'NONE' );
#29 = PRODUCT_RELATED_PRODUCT_CATEGORY( 'detail', ' ', ( #38 ) );
#30 = CALENDAR_DATE( 2021, 22, 10 );
#31 = LOCAL_TIME( 10, 19, 1.00000000000000, #49 );
#32 = PERSON_AND_ORGANIZATION( #50, #51 );
#33 = APPROVAL( #52, 'SOLID MODEL' );
#34 = APPROVAL_ROLE( 'APPROVED' );
#35 = SECURITY_CLASSIFICATION( '', '', #53 );
#36 = PRODUCT_DEFINITION_FORMATION_WITH_SPECIFIED_SOURCE( ' ', 'NONE', #38, .NOT_KNOWN. );
#37 = PRODUCT_DEFINITION( 'NONE', 'NONE', #36, #1 );
#38 = PRODUCT( '_093V4080S', '_093V4080S', 'PART-_093V4080S-DESC', ( #54 ) );
#39 = PRODUCT_DEFINITION_SHAPE( 'NONE', 'NONE', #37 );
#40 = ADVANCED_BREP_SHAPE_REPRESENTATION( '_093V4080S', ( #55, #56 ), #23 );
#43 = UNCERTAINTY_MEASURE_WITH_UNIT( LENGTH_MEASURE( 0.00100000000000000 ), #45, '', '' );
#45 =  ( CONVERSION_BASED_UNIT( 'MILLIMETRE', #59 )LENGTH_UNIT(  )NAMED_UNIT( #62 ) );
#46 =  ( NAMED_UNIT( #64 )PLANE_ANGLE_UNIT(  )SI_UNIT( $, .RADIAN. ) );
#47 =  ( NAMED_UNIT( #64 )SI_UNIT( $, .STERADIAN. )SOLID_ANGLE_UNIT(  ) );
#49 = COORDINATED_UNIVERSAL_TIME_OFFSET( 1, 0, .AHEAD. );
#50 = PERSON( '', 'UNSPECIFIED', $, $, $, $ );
#51 = ORGANIZATION( 'UNSPECIFIED', 'UNSPECIFIED', 'UNSPECIFIED' );
#52 = APPROVAL_STATUS( 'approved' );
#53 = SECURITY_CLASSIFICATION_LEVEL( 'unclassified' );
#54 = MECHANICAL_CONTEXT( '', #27, 'mechanical' );
#55 = MANIFOLD_SOLID_BREP( '_093V4080S', #70 );
#56 = AXIS2_PLACEMENT_3D( '', #71, #72, #73 );
#59 = LENGTH_MEASURE_WITH_UNIT( LENGTH_MEASURE( 1.00000000000000 ), #74 );
#62 = DIMENSIONAL_EXPONENTS( 1.00000000000000, 0.000000000000000, 0.000000000000000, 0.000000000000000, 0.000000000000000, 0.000000000000000, 0.000000000000000 );
#64 = DIMENSIONAL_EXPONENTS( 0.000000000000000, 0.000000000000000, 0.000000000000000, 0.000000000000000, 0.000000000000000, 0.000000000000000, 0.000000000000000 );
#70 = CLOSED_SHELL( '', ( #75, #76, #77, #78, #79, #80, #81, #82, #83, #84, #85, #86, #87, #88 ) );
#71 = CARTESIAN_POINT( '', ( 0.000000000000000, 0.000000000000000, 0.000000000000000 ) );
#72 = DIRECTION( '', ( 0.000000000000000, 0.000000000000000, 1.00000000000000 ) );
#73 = DIRECTION( '', ( 1.00000000000000, 0.000000000000000, 0.000000000000000 ) );
#74 =  ( LENGTH_UNIT(  )NAMED_UNIT( #62 )SI_UNIT( .MILLI., .METRE. ) );
#75 = ADVANCED_FACE( '', ( #90, #91, #92 ), #93, .T. );
#76 = ADVANCED_FACE( '', ( #94, #95 ), #96, .F. );
#77 = ADVANCED_FACE( '', ( #97, #98 ), #99, .F. );
#78 = ADVANCED_FACE( '', ( #100, #101, #102 ), #103, .F. );
#79 = ADVANCED_FACE( '', ( #104 ), #105, .T. );
#80 = ADVANCED_FACE( '', ( #106 ), #107, .F. );
#81 = ADVANCED_FACE( '', ( #108 ), #109, .F. );
#82 = ADVANCED_FACE( '', ( #110 ), #111, .T. );
#83 = ADVANCED_FACE( '', ( #112 ), #113, .F. );
#84 = ADVANCED_FACE( '', ( #114 ), #115, .T. );
#85 = ADVANCED_FACE( '', ( #116 ), #117, .F. );
#86 = ADVANCED_FACE( '', ( #118 ), #119, .T. );
#87 = ADVANCED_FACE( '', ( #120, #121 ), #122, .F. );
#88 = ADVANCED_FACE( '', ( #123, #124 ), #125, .F. );
#90 = FACE_BOUND( '', #126, .T. );
#91 = FACE_BOUND( '', #127, .T. );
#92 = FACE_OUTER_BOUND( '', #128, .T. );
#93 = PLANE( '', #129 );
#94 = FACE_OUTER_BOUND( '', #130, .T. );
#95 = FACE_BOUND( '', #131, .T. );
#96 = CONICAL_SURFACE( '', #132, 4.20000000000000, 0.785398163400000 );
#97 = FACE_OUTER_BOUND( '', #133, .T. );
#98 = FACE_OUTER_BOUND( '', #134, .T. );
#99 = CYLINDRICAL_SURFACE( '', #135, 4.20000000000000 );
#100 = FACE_BOUND( '', #136, .T. );
#101 = FACE_BOUND( '', #137, .T. );
#102 = FACE_OUTER_BOUND( '', #138, .T. );
#103 = PLANE( '', #139 );
#104 = FACE_OUTER_BOUND( '', #140, .T. );
#105 = CYLINDRICAL_SURFACE( '', #141, 4.00000000000000 );
#106 = FACE_OUTER_BOUND( '', #142, .T. );
#107 = PLANE( '', #143 );
#108 = FACE_OUTER_BOUND( '', #144, .T. );
#109 = PLANE( '', #145 );
#110 = FACE_OUTER_BOUND( '', #146, .T. );
#111 = CYLINDRICAL_SURFACE( '', #147, 4.00000000000000 );
#112 = FACE_OUTER_BOUND( '', #148, .T. );
#113 = PLANE( '', #149 );
#114 = FACE_OUTER_BOUND( '', #150, .T. );
#115 = CYLINDRICAL_SURFACE( '', #151, 4.00000000000000 );
#116 = FACE_OUTER_BOUND( '', #152, .T. );
#117 = PLANE( '', #153 );
#118 = FACE_OUTER_BOUND( '', #154, .T. );
#119 = CYLINDRICAL_SURFACE( '', #155, 4.00000000000000 );
#120 = FACE_OUTER_BOUND( '', #156, .T. );
#121 = FACE_OUTER_BOUND( '', #157, .T. );
#122 = CYLINDRICAL_SURFACE( '', #158, 4.20000000000000 );
#123 = FACE_OUTER_BOUND( '', #159, .T. );
#124 = FACE_BOUND( '', #160, .T. );
#125 = CONICAL_SURFACE( '', #161, 4.20000000000000, 0.785398163400000 );
#126 = EDGE_LOOP( '', ( #162 ) );
#127 = EDGE_LOOP( '', ( #163 ) );
#128 = EDGE_LOOP( '', ( #164, #165, #166, #167, #168, #169, #170, #171 ) );
#129 = AXIS2_PLACEMENT_3D( '', #172, #173, #174 );
#130 = EDGE_LOOP( '', ( #175 ) );
#131 = EDGE_LOOP( '', ( #176 ) );
#132 = AXIS2_PLACEMENT_3D( '', #177, #178, #179 );
#133 = EDGE_LOOP( '', ( #180 ) );
#134 = EDGE_LOOP( '', ( #181 ) );
#135 = AXIS2_PLACEMENT_3D( '', #182, #183, #184 );
#136 = EDGE_LOOP( '', ( #185 ) );
#137 = EDGE_LOOP( '', ( #186 ) );
#138 = EDGE_LOOP( '', ( #187, #188, #189, #190, #191, #192, #193, #194 ) );
#139 = AXIS2_PLACEMENT_3D( '', #195, #196, #197 );
#140 = EDGE_LOOP( '', ( #198, #199, #200, #201 ) );
#141 = AXIS2_PLACEMENT_3D( '', #202, #203, #204 );
#142 = EDGE_LOOP( '', ( #205, #206, #207, #208 ) );
#143 = AXIS2_PLACEMENT_3D( '', #209, #210, #211 );
#144 = EDGE_LOOP( '', ( #212, #213, #214, #215 ) );
#145 = AXIS2_PLACEMENT_3D( '', #216, #217, #218 );
#146 = EDGE_LOOP( '', ( #219, #220, #221, #222 ) );
#147 = AXIS2_PLACEMENT_3D( '', #223, #224, #225 );
#148 = EDGE_LOOP( '', ( #226, #227, #228, #229 ) );
#149 = AXIS2_PLACEMENT_3D( '', #230, #231, #232 );
#150 = EDGE_LOOP( '', ( #233, #234, #235, #236 ) );
#151 = AXIS2_PLACEMENT_3D( '', #237, #238, #239 );
#152 = EDGE_LOOP( '', ( #240, #241, #242, #243 ) );
#153 = AXIS2_PLACEMENT_3D( '', #244, #245, #246 );
#154 = EDGE_LOOP( '', ( #247, #248, #249, #250 ) );
#155 = AXIS2_PLACEMENT_3D( '', #251, #252, #253 );
#156 = EDGE_LOOP( '', ( #254 ) );
#157 = EDGE_LOOP( '', ( #255 ) );
#158 = AXIS2_PLACEMENT_3D( '', #256, #257, #258 );
#159 = EDGE_LOOP( '', ( #259 ) );
#160 = EDGE_LOOP( '', ( #260 ) );
#161 = AXIS2_PLACEMENT_3D( '', #261, #262, #263 );
#162 = ORIENTED_EDGE( '', *, *, #264, .F. );
#163 = ORIENTED_EDGE( '', *, *, #265, .F. );
#164 = ORIENTED_EDGE( '', *, *, #266, .T. );
#165 = ORIENTED_EDGE( '', *, *, #267, .T. );
#166 = ORIENTED_EDGE( '', *, *, #268, .T. );
#167 = ORIENTED_EDGE( '', *, *, #269, .T. );
#168 = ORIENTED_EDGE( '', *, *, #270, .T. );
#169 = ORIENTED_EDGE( '', *, *, #271, .T. );
#170 = ORIENTED_EDGE( '', *, *, #272, .T. );
#171 = ORIENTED_EDGE( '', *, *, #273, .T. );
#172 = CARTESIAN_POINT( '', ( 4.00000000000000, 16.0000000000000, 5.00000000000000 ) );
#173 = DIRECTION( '', ( 0.000000000000000, 0.000000000000000, 1.00000000000000 ) );
#174 = DIRECTION( '', ( 1.00000000000000, 0.000000000000000, -0.000000000000000 ) );
#175 = ORIENTED_EDGE( '', *, *, #265, .T. );
#176 = ORIENTED_EDGE( '', *, *, #274, .F. );
#177 = CARTESIAN_POINT( '', ( 20.0000000000000, 0.000000000000000, 0.550000000000000 ) );
#178 = DIRECTION( '', ( -0.000000000000000, -0.000000000000000, 1.00000000000000 ) );
#179 = DIRECTION( '', ( 1.00000000000000, 0.000000000000000, 0.000000000000000 ) );
#180 = ORIENTED_EDGE( '', *, *, #274, .T. );
#181 = ORIENTED_EDGE( '', *, *, #275, .F. );
#182 = CARTESIAN_POINT( '', ( 20.0000000000000, 0.000000000000000, 5.00000000000000 ) );
#183 = DIRECTION( '', ( -0.000000000000000, 0.000000000000000, -1.00000000000000 ) );
#184 = DIRECTION( '', ( 1.00000000000000, 0.000000000000000, 0.000000000000000 ) );
#185 = ORIENTED_EDGE( '', *, *, #276, .T. );
#186 = ORIENTED_EDGE( '', *, *, #275, .T. );
#187 = ORIENTED_EDGE( '', *, *, #277, .F. );
#188 = ORIENTED_EDGE( '', *, *, #278, .F. );
#189 = ORIENTED_EDGE( '', *, *, #279, .F. );
#190 = ORIENTED_EDGE( '', *, *, #280, .F. );
#191 = ORIENTED_EDGE( '', *, *, #281, .F. );
#192 = ORIENTED_EDGE( '', *, *, #282, .F. );
#193 = ORIENTED_EDGE( '', *, *, #283, .F. );
#194 = ORIENTED_EDGE( '', *, *, #284, .F. );
#195 = CARTESIAN_POINT( '', ( 4.00000000000000, 16.0000000000000, 0.000000000000000 ) );
#196 = DIRECTION( '', ( 0.000000000000000, 0.000000000000000, 1.00000000000000 ) );
#197 = DIRECTION( '', ( 1.00000000000000, 0.000000000000000, -0.000000000000000 ) );
#198 = ORIENTED_EDGE( '', *, *, #277, .T. );
#199 = ORIENTED_EDGE( '', *, *, #285, .F. );
#200 = ORIENTED_EDGE( '', *, *, #266, .F. );
#201 = ORIENTED_EDGE( '', *, *, #286, .T. );
#202 = CARTESIAN_POINT( '', ( 4.00000000000000, 16.0000000000000, 5.00000000000000 ) );
#203 = DIRECTION( '', ( 0.000000000000000, -0.000000000000000, 1.00000000000000 ) );
#204 = DIRECTION( '', ( -1.00000000000000, 0.000000000000000, 0.000000000000000 ) );
#205 = ORIENTED_EDGE( '', *, *, #284, .T. );
#206 = ORIENTED_EDGE( '', *, *, #287, .F. );
#207 = ORIENTED_EDGE( '', *, *, #267, .F. );
#208 = ORIENTED_EDGE( '', *, *, #285, .T. );
#209 = CARTESIAN_POINT( '', ( 0.000000000000000, 16.0000000000000, 5.00000000000000 ) );
#210 = DIRECTION( '', ( 1.00000000000000, 0.000000000000000, -0.000000000000000 ) );
#211 = DIRECTION( '', ( -0.000000000000000, 0.000000000000000, -1.00000000000000 ) );
#212 = ORIENTED_EDGE( '', *, *, #278, .T. );
#213 = ORIENTED_EDGE( '', *, *, #286, .F. );
#214 = ORIENTED_EDGE( '', *, *, #273, .F. );
#215 = ORIENTED_EDGE( '', *, *, #288, .T. );
#216 = CARTESIAN_POINT( '', ( 76.0000000000000, 20.0000000000000, 5.00000000000000 ) );
#217 = DIRECTION( '', ( 0.000000000000000, -1.00000000000000, 0.000000000000000 ) );
#218 = DIRECTION( '', ( 0.000000000000000, 0.000000000000000, -1.00000000000000 ) );
#219 = ORIENTED_EDGE( '', *, *, #279, .T. );
#220 = ORIENTED_EDGE( '', *, *, #288, .F. );
#221 = ORIENTED_EDGE( '', *, *, #272, .F. );
#222 = ORIENTED_EDGE( '', *, *, #289, .T. );
#223 = CARTESIAN_POINT( '', ( 76.0000000000000, 16.0000000000000, 5.00000000000000 ) );
#224 = DIRECTION( '', ( 0.000000000000000, -0.000000000000000, 1.00000000000000 ) );
#225 = DIRECTION( '', ( -1.00000000000000, 0.000000000000000, 0.000000000000000 ) );
#226 = ORIENTED_EDGE( '', *, *, #280, .T. );
#227 = ORIENTED_EDGE( '', *, *, #289, .F. );
#228 = ORIENTED_EDGE( '', *, *, #271, .F. );
#229 = ORIENTED_EDGE( '', *, *, #290, .T. );
#230 = CARTESIAN_POINT( '', ( 80.0000000000000, -16.0000000000000, 5.00000000000000 ) );
#231 = DIRECTION( '', ( -1.00000000000000, 0.000000000000000, 0.000000000000000 ) );
#232 = DIRECTION( '', ( 0.000000000000000, 0.000000000000000, 1.00000000000000 ) );
#233 = ORIENTED_EDGE( '', *, *, #281, .T. );
#234 = ORIENTED_EDGE( '', *, *, #290, .F. );
#235 = ORIENTED_EDGE( '', *, *, #270, .F. );
#236 = ORIENTED_EDGE( '', *, *, #291, .T. );
#237 = CARTESIAN_POINT( '', ( 76.0000000000000, -16.0000000000000, 5.00000000000000 ) );
#238 = DIRECTION( '', ( 0.000000000000000, -0.000000000000000, 1.00000000000000 ) );
#239 = DIRECTION( '', ( -1.00000000000000, 0.000000000000000, 0.000000000000000 ) );
#240 = ORIENTED_EDGE( '', *, *, #282, .T. );
#241 = ORIENTED_EDGE( '', *, *, #291, .F. );
#242 = ORIENTED_EDGE( '', *, *, #269, .F. );
#243 = ORIENTED_EDGE( '', *, *, #292, .T. );
#244 = CARTESIAN_POINT( '', ( 4.00000000000000, -20.0000000000000, 5.00000000000000 ) );
#245 = DIRECTION( '', ( 0.000000000000000, 1.00000000000000, 0.000000000000000 ) );
#246 = DIRECTION( '', ( 0.000000000000000, -0.000000000000000, 1.00000000000000 ) );
#247 = ORIENTED_EDGE( '', *, *, #283, .T. );
#248 = ORIENTED_EDGE( '', *, *, #292, .F. );
#249 = ORIENTED_EDGE( '', *, *, #268, .F. );
#250 = ORIENTED_EDGE( '', *, *, #287, .T. );
#251 = CARTESIAN_POINT( '', ( 4.00000000000000, -16.0000000000000, 5.00000000000000 ) );
#252 = DIRECTION( '', ( 0.000000000000000, -0.000000000000000, 1.00000000000000 ) );
#253 = DIRECTION( '', ( -1.00000000000000, 0.000000000000000, 0.000000000000000 ) );
#254 = ORIENTED_EDGE( '', *, *, #293, .T. );
#255 = ORIENTED_EDGE( '', *, *, #276, .F. );
#256 = CARTESIAN_POINT( '', ( 60.0000000000000, 0.000000000000000, 5.00000000000000 ) );
#257 = DIRECTION( '', ( -0.000000000000000, 0.000000000000000, -1.00000000000000 ) );
#258 = DIRECTION( '', ( 1.00000000000000, 0.000000000000000, 0.000000000000000 ) );
#259 = ORIENTED_EDGE( '', *, *, #264, .T. );
#260 = ORIENTED_EDGE( '', *, *, #293, .F. );
#261 = CARTESIAN_POINT( '', ( 60.0000000000000, 0.000000000000000, 0.550000000000000 ) );
#262 = DIRECTION( '', ( -0.000000000000000, -0.000000000000000, 1.00000000000000 ) );
#263 = DIRECTION( '', ( 1.00000000000000, 0.000000000000000, 0.000000000000000 ) );
#264 = EDGE_CURVE( '', #294, #294, #295, .T. );
#265 = EDGE_CURVE( '', #296, #296, #297, .T. );
#266 = EDGE_CURVE( '', #298, #299, #300, .T. );
#267 = EDGE_CURVE( '', #299, #301, #302, .T. );
#268 = EDGE_CURVE( '', #301, #303, #304, .T. );
#269 = EDGE_CURVE( '', #303, #305, #306, .T. );
#270 = EDGE_CURVE( '', #305, #307, #308, .T. );
#271 = EDGE_CURVE( '', #307, #309, #310, .T. );
#272 = EDGE_CURVE( '', #309, #311, #312, .T. );
#273 = EDGE_CURVE( '', #311, #298, #313, .T. );
#274 = EDGE_CURVE( '', #314, #314, #315, .T. );
#275 = EDGE_CURVE( '', #316, #316, #317, .T. );
#276 = EDGE_CURVE( '', #318, #318, #319, .T. );
#277 = EDGE_CURVE( '', #320, #321, #322, .T. );
#278 = EDGE_CURVE( '', #323, #320, #324, .T. );
#279 = EDGE_CURVE( '', #325, #323, #326, .T. );
#280 = EDGE_CURVE( '', #327, #325, #328, .T. );
#281 = EDGE_CURVE( '', #329, #327, #330, .T. );
#282 = EDGE_CURVE( '', #331, #329, #332, .T. );
#283 = EDGE_CURVE( '', #333, #331, #334, .T. );
#284 = EDGE_CURVE( '', #321, #333, #335, .T. );
#285 = EDGE_CURVE( '', #299, #321, #336, .T. );
#286 = EDGE_CURVE( '', #298, #320, #337, .T. );
#287 = EDGE_CURVE( '', #301, #333, #338, .T. );
#288 = EDGE_CURVE( '', #311, #323, #339, .T. );
#289 = EDGE_CURVE( '', #309, #325, #340, .T. );
#290 = EDGE_CURVE( '', #307, #327, #341, .T. );
#291 = EDGE_CURVE( '', #305, #329, #342, .T. );
#292 = EDGE_CURVE( '', #303, #331, #343, .T. );
#293 = EDGE_CURVE( '', #344, #344, #345, .T. );
#294 = VERTEX_POINT( '', #346 );
#295 = CIRCLE( '', #347, 8.65000000000000 );
#296 = VERTEX_POINT( '', #348 );
#297 = CIRCLE( '', #349, 8.65000000000000 );
#298 = VERTEX_POINT( '', #350 );
#299 = VERTEX_POINT( '', #351 );
#300 = CIRCLE( '', #352, 4.00000000000000 );
#301 = VERTEX_POINT( '', #353 );
#302 = LINE( '', #354, #355 );
#303 = VERTEX_POINT( '', #356 );
#304 = CIRCLE( '', #357, 4.00000000000000 );
#305 = VERTEX_POINT( '', #358 );
#306 = LINE( '', #359, #360 );
#307 = VERTEX_POINT( '', #361 );
#308 = CIRCLE( '', #362, 4.00000000000000 );
#309 = VERTEX_POINT( '', #363 );
#310 = LINE( '', #364, #365 );
#311 = VERTEX_POINT( '', #366 );
#312 = CIRCLE( '', #367, 4.00000000000000 );
#313 = LINE( '', #368, #369 );
#314 = VERTEX_POINT( '', #370 );
#315 = CIRCLE( '', #371, 4.20000000000000 );
#316 = VERTEX_POINT( '', #372 );
#317 = CIRCLE( '', #373, 4.20000000000000 );
#318 = VERTEX_POINT( '', #374 );
#319 = CIRCLE( '', #375, 4.20000000000000 );
#320 = VERTEX_POINT( '', #376 );
#321 = VERTEX_POINT( '', #377 );
#322 = CIRCLE( '', #378, 4.00000000000000 );
#323 = VERTEX_POINT( '', #379 );
#324 = LINE( '', #380, #381 );
#325 = VERTEX_POINT( '', #382 );
#326 = CIRCLE( '', #383, 4.00000000000000 );
#327 = VERTEX_POINT( '', #384 );
#328 = LINE( '', #385, #386 );
#329 = VERTEX_POINT( '', #387 );
#330 = CIRCLE( '', #388, 4.00000000000000 );
#331 = VERTEX_POINT( '', #389 );
#332 = LINE( '', #390, #391 );
#333 = VERTEX_POINT( '', #392 );
#334 = CIRCLE( '', #393, 4.00000000000000 );
#335 = LINE( '', #394, #395 );
#336 = LINE( '', #396, #397 );
#337 = LINE( '', #398, #399 );
#338 = LINE( '', #400, #401 );
#339 = LINE( '', #402, #403 );
#340 = LINE( '', #404, #405 );
#341 = LINE( '', #406, #407 );
#342 = LINE( '', #408, #409 );
#343 = LINE( '', #410, #411 );
#344 = VERTEX_POINT( '', #412 );
#345 = CIRCLE( '', #413, 4.20000000000000 );
#346 = CARTESIAN_POINT( '', ( 68.6500000000000, 0.000000000000000, 5.00000000000000 ) );
#347 = AXIS2_PLACEMENT_3D( '', #414, #415, #416 );
#348 = CARTESIAN_POINT( '', ( 28.6500000000000, 0.000000000000000, 5.00000000000000 ) );
#349 = AXIS2_PLACEMENT_3D( '', #417, #418, #419 );
#350 = CARTESIAN_POINT( '', ( 4.00000000000000, 20.0000000000000, 5.00000000000000 ) );
#351 = CARTESIAN_POINT( '', ( 0.000000000000000, 16.0000000000000, 5.00000000000000 ) );
#352 = AXIS2_PLACEMENT_3D( '', #420, #421, #422 );
#353 = CARTESIAN_POINT( '', ( 0.000000000000000, -16.0000000000000, 5.00000000000000 ) );
#354 = CARTESIAN_POINT( '', ( 0.000000000000000, 16.0000000000000, 5.00000000000000 ) );
#355 = VECTOR( '', #423, 1000.00000000000 );
#356 = CARTESIAN_POINT( '', ( 4.00000000000000, -20.0000000000000, 5.00000000000000 ) );
#357 = AXIS2_PLACEMENT_3D( '', #424, #425, #426 );
#358 = CARTESIAN_POINT( '', ( 76.0000000000000, -20.0000000000000, 5.00000000000000 ) );
#359 = CARTESIAN_POINT( '', ( 4.00000000000000, -20.0000000000000, 5.00000000000000 ) );
#360 = VECTOR( '', #427, 1000.00000000000 );
#361 = CARTESIAN_POINT( '', ( 80.0000000000000, -16.0000000000000, 5.00000000000000 ) );
#362 = AXIS2_PLACEMENT_3D( '', #428, #429, #430 );
#363 = CARTESIAN_POINT( '', ( 80.0000000000000, 16.0000000000000, 5.00000000000000 ) );
#364 = CARTESIAN_POINT( '', ( 80.0000000000000, -16.0000000000000, 5.00000000000000 ) );
#365 = VECTOR( '', #431, 1000.00000000000 );
#366 = CARTESIAN_POINT( '', ( 76.0000000000000, 20.0000000000000, 5.00000000000000 ) );
#367 = AXIS2_PLACEMENT_3D( '', #432, #433, #434 );
#368 = CARTESIAN_POINT( '', ( 76.0000000000000, 20.0000000000000, 5.00000000000000 ) );
#369 = VECTOR( '', #435, 1000.00000000000 );
#370 = CARTESIAN_POINT( '', ( 24.2000000000000, 0.000000000000000, 0.550000000000000 ) );
#371 = AXIS2_PLACEMENT_3D( '', #436, #437, #438 );
#372 = CARTESIAN_POINT( '', ( 24.2000000000000, 0.000000000000000, 0.000000000000000 ) );
#373 = AXIS2_PLACEMENT_3D( '', #439, #440, #441 );
#374 = CARTESIAN_POINT( '', ( 64.2000000000000, 0.000000000000000, 0.000000000000000 ) );
#375 = AXIS2_PLACEMENT_3D( '', #442, #443, #444 );
#376 = CARTESIAN_POINT( '', ( 4.00000000000000, 20.0000000000000, 0.000000000000000 ) );
#377 = CARTESIAN_POINT( '', ( 0.000000000000000, 16.0000000000000, 0.000000000000000 ) );
#378 = AXIS2_PLACEMENT_3D( '', #445, #446, #447 );
#379 = CARTESIAN_POINT( '', ( 76.0000000000000, 20.0000000000000, 0.000000000000000 ) );
#380 = CARTESIAN_POINT( '', ( 76.0000000000000, 20.0000000000000, 0.000000000000000 ) );
#381 = VECTOR( '', #448, 1000.00000000000 );
#382 = CARTESIAN_POINT( '', ( 80.0000000000000, 16.0000000000000, 0.000000000000000 ) );
#383 = AXIS2_PLACEMENT_3D( '', #449, #450, #451 );
#384 = CARTESIAN_POINT( '', ( 80.0000000000000, -16.0000000000000, 0.000000000000000 ) );
#385 = CARTESIAN_POINT( '', ( 80.0000000000000, -16.0000000000000, 0.000000000000000 ) );
#386 = VECTOR( '', #452, 1000.00000000000 );
#387 = CARTESIAN_POINT( '', ( 76.0000000000000, -20.0000000000000, 0.000000000000000 ) );
#388 = AXIS2_PLACEMENT_3D( '', #453, #454, #455 );
#389 = CARTESIAN_POINT( '', ( 4.00000000000000, -20.0000000000000, 0.000000000000000 ) );
#390 = CARTESIAN_POINT( '', ( 4.00000000000000, -20.0000000000000, 0.000000000000000 ) );
#391 = VECTOR( '', #456, 1000.00000000000 );
#392 = CARTESIAN_POINT( '', ( 0.000000000000000, -16.0000000000000, 0.000000000000000 ) );
#393 = AXIS2_PLACEMENT_3D( '', #457, #458, #459 );
#394 = CARTESIAN_POINT( '', ( 0.000000000000000, 16.0000000000000, 0.000000000000000 ) );
#395 = VECTOR( '', #460, 1000.00000000000 );
#396 = CARTESIAN_POINT( '', ( 0.000000000000000, 16.0000000000000, 5.00000000000000 ) );
#397 = VECTOR( '', #461, 1000.00000000000 );
#398 = CARTESIAN_POINT( '', ( 4.00000000000000, 20.0000000000000, 5.00000000000000 ) );
#399 = VECTOR( '', #462, 1000.00000000000 );
#400 = CARTESIAN_POINT( '', ( 0.000000000000000, -16.0000000000000, 5.00000000000000 ) );
#401 = VECTOR( '', #463, 1000.00000000000 );
#402 = CARTESIAN_POINT( '', ( 76.0000000000000, 20.0000000000000, 5.00000000000000 ) );
#403 = VECTOR( '', #464, 1000.00000000000 );
#404 = CARTESIAN_POINT( '', ( 80.0000000000000, 16.0000000000000, 5.00000000000000 ) );
#405 = VECTOR( '', #465, 1000.00000000000 );
#406 = CARTESIAN_POINT( '', ( 80.0000000000000, -16.0000000000000, 5.00000000000000 ) );
#407 = VECTOR( '', #466, 1000.00000000000 );
#408 = CARTESIAN_POINT( '', ( 76.0000000000000, -20.0000000000000, 5.00000000000000 ) );
#409 = VECTOR( '', #467, 1000.00000000000 );
#410 = CARTESIAN_POINT( '', ( 4.00000000000000, -20.0000000000000, 5.00000000000000 ) );
#411 = VECTOR( '', #468, 1000.00000000000 );
#412 = CARTESIAN_POINT( '', ( 64.2000000000000, 0.000000000000000, 0.550000000000000 ) );
#413 = AXIS2_PLACEMENT_3D( '', #469, #470, #471 );
#414 = CARTESIAN_POINT( '', ( 60.0000000000000, 0.000000000000000, 5.00000000000000 ) );
#415 = DIRECTION( '', ( 0.000000000000000, -0.000000000000000, 1.00000000000000 ) );
#416 = DIRECTION( '', ( 1.00000000000000, 0.000000000000000, 0.000000000000000 ) );
#417 = CARTESIAN_POINT( '', ( 20.0000000000000, 0.000000000000000, 5.00000000000000 ) );
#418 = DIRECTION( '', ( 0.000000000000000, -0.000000000000000, 1.00000000000000 ) );
#419 = DIRECTION( '', ( 1.00000000000000, 0.000000000000000, 0.000000000000000 ) );
#420 = CARTESIAN_POINT( '', ( 4.00000000000000, 16.0000000000000, 5.00000000000000 ) );
#421 = DIRECTION( '', ( 0.000000000000000, 0.000000000000000, 1.00000000000000 ) );
#422 = DIRECTION( '', ( 1.00000000000000, 0.000000000000000, 0.000000000000000 ) );
#423 = DIRECTION( '', ( 0.000000000000000, -1.00000000000000, 0.000000000000000 ) );
#424 = CARTESIAN_POINT( '', ( 4.00000000000000, -16.0000000000000, 5.00000000000000 ) );
#425 = DIRECTION( '', ( 0.000000000000000, 0.000000000000000, 1.00000000000000 ) );
#426 = DIRECTION( '', ( 1.00000000000000, 0.000000000000000, 0.000000000000000 ) );
#427 = DIRECTION( '', ( 1.00000000000000, 0.000000000000000, 0.000000000000000 ) );
#428 = CARTESIAN_POINT( '', ( 76.0000000000000, -16.0000000000000, 5.00000000000000 ) );
#429 = DIRECTION( '', ( 0.000000000000000, 0.000000000000000, 1.00000000000000 ) );
#430 = DIRECTION( '', ( 1.00000000000000, 0.000000000000000, 0.000000000000000 ) );
#431 = DIRECTION( '', ( 0.000000000000000, 1.00000000000000, 0.000000000000000 ) );
#432 = CARTESIAN_POINT( '', ( 76.0000000000000, 16.0000000000000, 5.00000000000000 ) );
#433 = DIRECTION( '', ( 0.000000000000000, 0.000000000000000, 1.00000000000000 ) );
#434 = DIRECTION( '', ( 1.00000000000000, 0.000000000000000, 0.000000000000000 ) );
#435 = DIRECTION( '', ( -1.00000000000000, 0.000000000000000, 0.000000000000000 ) );
#436 = CARTESIAN_POINT( '', ( 20.0000000000000, 0.000000000000000, 0.550000000000000 ) );
#437 = DIRECTION( '', ( 0.000000000000000, -0.000000000000000, 1.00000000000000 ) );
#438 = DIRECTION( '', ( 1.00000000000000, 0.000000000000000, 0.000000000000000 ) );
#439 = CARTESIAN_POINT( '', ( 20.0000000000000, 0.000000000000000, 0.000000000000000 ) );
#440 = DIRECTION( '', ( 0.000000000000000, -0.000000000000000, 1.00000000000000 ) );
#441 = DIRECTION( '', ( 1.00000000000000, 0.000000000000000, 0.000000000000000 ) );
#442 = CARTESIAN_POINT( '', ( 60.0000000000000, 0.000000000000000, 0.000000000000000 ) );
#443 = DIRECTION( '', ( 0.000000000000000, -0.000000000000000, 1.00000000000000 ) );
#444 = DIRECTION( '', ( 1.00000000000000, 0.000000000000000, 0.000000000000000 ) );
#445 = CARTESIAN_POINT( '', ( 4.00000000000000, 16.0000000000000, 0.000000000000000 ) );
#446 = DIRECTION( '', ( 0.000000000000000, 0.000000000000000, 1.00000000000000 ) );
#447 = DIRECTION( '', ( 1.00000000000000, 0.000000000000000, 0.000000000000000 ) );
#448 = DIRECTION( '', ( -1.00000000000000, 0.000000000000000, 0.000000000000000 ) );
#449 = CARTESIAN_POINT( '', ( 76.0000000000000, 16.0000000000000, 0.000000000000000 ) );
#450 = DIRECTION( '', ( 0.000000000000000, 0.000000000000000, 1.00000000000000 ) );
#451 = DIRECTION( '', ( 1.00000000000000, 0.000000000000000, 0.000000000000000 ) );
#452 = DIRECTION( '', ( 0.000000000000000, 1.00000000000000, 0.000000000000000 ) );
#453 = CARTESIAN_POINT( '', ( 76.0000000000000, -16.0000000000000, 0.000000000000000 ) );
#454 = DIRECTION( '', ( 0.000000000000000, 0.000000000000000, 1.00000000000000 ) );
#455 = DIRECTION( '', ( 1.00000000000000, 0.000000000000000, 0.000000000000000 ) );
#456 = DIRECTION( '', ( 1.00000000000000, 0.000000000000000, 0.000000000000000 ) );
#457 = CARTESIAN_POINT( '', ( 4.00000000000000, -16.0000000000000, 0.000000000000000 ) );
#458 = DIRECTION( '', ( 0.000000000000000, 0.000000000000000, 1.00000000000000 ) );
#459 = DIRECTION( '', ( 1.00000000000000, 0.000000000000000, 0.000000000000000 ) );
#460 = DIRECTION( '', ( 0.000000000000000, -1.00000000000000, 0.000000000000000 ) );
#461 = DIRECTION( '', ( -0.000000000000000, -0.000000000000000, -1.00000000000000 ) );
#462 = DIRECTION( '', ( -0.000000000000000, -0.000000000000000, -1.00000000000000 ) );
#463 = DIRECTION( '', ( -0.000000000000000, -0.000000000000000, -1.00000000000000 ) );
#464 = DIRECTION( '', ( -0.000000000000000, -0.000000000000000, -1.00000000000000 ) );
#465 = DIRECTION( '', ( -0.000000000000000, -0.000000000000000, -1.00000000000000 ) );
#466 = DIRECTION( '', ( -0.000000000000000, -0.000000000000000, -1.00000000000000 ) );
#467 = DIRECTION( '', ( -0.000000000000000, -0.000000000000000, -1.00000000000000 ) );
#468 = DIRECTION( '', ( -0.000000000000000, -0.000000000000000, -1.00000000000000 ) );
#469 = CARTESIAN_POINT( '', ( 60.0000000000000, 0.000000000000000, 0.550000000000000 ) );
#470 = DIRECTION( '', ( 0.000000000000000, -0.000000000000000, 1.00000000000000 ) );
#471 = DIRECTION( '', ( 1.00000000000000, 0.000000000000000, 0.000000000000000 ) );
ENDSEC;
END-ISO-10303-21;
