ISO-10303-21;
HEADER;
FILE_DESCRIPTION(('STEP AP203'),'1');
FILE_NAME('fath_092066.stp','2021-11-23T12:23:46',('TraceParts'),('TraceParts S.A.'),'Spatial InterOp 3D',' ',' ');
FILE_SCHEMA(('CONFIG_CONTROL_DESIGN'));
ENDSEC;
DATA;
#1=DESIGN_CONTEXT('',#27,'design');
#2=APPLICATION_PROTOCOL_DEFINITION('INTERNATIONAL STANDARD','config_control_design',1994,#27);
#3=PRODUCT_CATEGORY_RELATIONSHIP('NONE','NONE',#28,#29);
#4=DATE_AND_TIME(#30,#31);
#5=DATE_TIME_ROLE('creation_date');
#6=DATE_TIME_ROLE('classification_date');
#7=PERSON_AND_ORGANIZATION_ROLE('creator');
#8=PERSON_AND_ORGANIZATION_ROLE('design_supplier');
#9=PERSON_AND_ORGANIZATION_ROLE('classification_officer');
#10=PERSON_AND_ORGANIZATION_ROLE('design_owner');
#11=APPROVAL_PERSON_ORGANIZATION(#32,#33,#34);
#12=APPROVAL_DATE_TIME(#4,#33);
#13=CC_DESIGN_APPROVAL(#33,(#35,#36,#37));
#14=CC_DESIGN_DATE_AND_TIME_ASSIGNMENT(#4,#5,(#37));
#15=CC_DESIGN_DATE_AND_TIME_ASSIGNMENT(#4,#6,(#35));
#16=CC_DESIGN_PERSON_AND_ORGANIZATION_ASSIGNMENT(#32,#10,(#38));
#17=CC_DESIGN_PERSON_AND_ORGANIZATION_ASSIGNMENT(#32,#7,(#37));
#18=CC_DESIGN_PERSON_AND_ORGANIZATION_ASSIGNMENT(#32,#7,(#36));
#19=CC_DESIGN_PERSON_AND_ORGANIZATION_ASSIGNMENT(#32,#8,(#36));
#20=CC_DESIGN_SECURITY_CLASSIFICATION(#35,(#36));
#21=CC_DESIGN_PERSON_AND_ORGANIZATION_ASSIGNMENT(#32,#9,(#35));
#22=SHAPE_DEFINITION_REPRESENTATION(#39,#40);
#23= (GEOMETRIC_REPRESENTATION_CONTEXT(3)GLOBAL_UNCERTAINTY_ASSIGNED_CONTEXT((#43))GLOBAL_UNIT_ASSIGNED_CONTEXT((#45,#46,#47))REPRESENTATION_CONTEXT('NONE','WORKSPACE'));
#27=APPLICATION_CONTEXT('CONFIGURATION CONTROLLED 3D DESIGNS OF MECHANICAL PARTS AND ASSEMBLIES');
#28=PRODUCT_CATEGORY('part','NONE');
#29=PRODUCT_RELATED_PRODUCT_CATEGORY('detail',' ',(#38));
#30=CALENDAR_DATE(2021,23,10);
#31=LOCAL_TIME(13,23,46.0,#49);
#32=PERSON_AND_ORGANIZATION(#50,#51);
#33=APPROVAL(#52,'SOLID MODEL');
#34=APPROVAL_ROLE('APPROVED');
#35=SECURITY_CLASSIFICATION('','',#53);
#36=PRODUCT_DEFINITION_FORMATION_WITH_SPECIFIED_SOURCE(' ','NONE',#38,.NOT_KNOWN.);
#37=PRODUCT_DEFINITION('','NONE',#36,#1);
#38=PRODUCT('1','','PART--DESC',(#54));
#39=PRODUCT_DEFINITION_SHAPE('NONE','NONE',#37);
#40=ADVANCED_BREP_SHAPE_REPRESENTATION('1',(#55,#56),#23);
#43=UNCERTAINTY_MEASURE_WITH_UNIT(LENGTH_MEASURE(1.0E-06),#45,'','');
#45= (CONVERSION_BASED_UNIT('MILLIMETRE',#59)LENGTH_UNIT()NAMED_UNIT(#62));
#46= (NAMED_UNIT(#64)PLANE_ANGLE_UNIT()SI_UNIT($,.RADIAN.));
#47= (NAMED_UNIT(#64)SOLID_ANGLE_UNIT()SI_UNIT($,.STERADIAN.));
#49=COORDINATED_UNIVERSAL_TIME_OFFSET(1,0,.AHEAD.);
#50=PERSON('','UNSPECIFIED',$,$,$,$);
#51=ORGANIZATION('UNSPECIFIED','UNSPECIFIED','UNSPECIFIED');
#52=APPROVAL_STATUS('approved');
#53=SECURITY_CLASSIFICATION_LEVEL('unclassified');
#54=MECHANICAL_CONTEXT('',#27,'mechanical');
#55=MANIFOLD_SOLID_BREP('1',#70);
#56=AXIS2_PLACEMENT_3D('',#71,#72,#73);
#59=LENGTH_MEASURE_WITH_UNIT(LENGTH_MEASURE(1.0),#74);
#62=DIMENSIONAL_EXPONENTS(1.0,0.0,0.0,0.0,0.0,0.0,0.0);
#64=DIMENSIONAL_EXPONENTS(0.0,0.0,0.0,0.0,0.0,0.0,0.0);
#70=CLOSED_SHELL('',(#75,#76,#77,#78,#79,#80,#81,#82,#83,#84,#85,#86,#87,#88,#89,#90,#91,#92));
#71=CARTESIAN_POINT('',(0.0,0.0,0.0));
#72=DIRECTION('',(0.0,0.0,1.0));
#73=DIRECTION('',(1.0,0.0,0.0));
#74= (NAMED_UNIT(#62)LENGTH_UNIT()SI_UNIT(.MILLI.,.METRE.));
#75=ADVANCED_FACE('',(#94),#95,.T.);
#76=ADVANCED_FACE('',(#96),#97,.T.);
#77=ADVANCED_FACE('',(#98),#99,.T.);
#78=ADVANCED_FACE('',(#100),#101,.T.);
#79=ADVANCED_FACE('',(#102),#103,.F.);
#80=ADVANCED_FACE('',(#104),#105,.F.);
#81=ADVANCED_FACE('',(#106),#107,.F.);
#82=ADVANCED_FACE('',(#108),#109,.T.);
#83=ADVANCED_FACE('',(#110),#111,.F.);
#84=ADVANCED_FACE('',(#112),#113,.T.);
#85=ADVANCED_FACE('',(#114),#115,.T.);
#86=ADVANCED_FACE('',(#116),#117,.F.);
#87=ADVANCED_FACE('',(#118),#119,.F.);
#88=ADVANCED_FACE('',(#120),#121,.T.);
#89=ADVANCED_FACE('',(#122),#123,.T.);
#90=ADVANCED_FACE('',(#124),#125,.T.);
#91=ADVANCED_FACE('',(#126),#127,.F.);
#92=ADVANCED_FACE('',(#128),#129,.T.);
#94=FACE_OUTER_BOUND('',#130,.T.);
#95=CYLINDRICAL_SURFACE('',#131,0.6);
#96=FACE_OUTER_BOUND('',#132,.T.);
#97=CYLINDRICAL_SURFACE('',#133,0.600000000000001);
#98=FACE_OUTER_BOUND('',#134,.T.);
#99=CYLINDRICAL_SURFACE('',#135,0.600000000000001);
#100=FACE_OUTER_BOUND('',#136,.T.);
#101=CYLINDRICAL_SURFACE('',#137,0.500000000000001);
#102=FACE_OUTER_BOUND('',#138,.T.);
#103=CYLINDRICAL_SURFACE('',#139,28.8);
#104=FACE_OUTER_BOUND('',#140,.T.);
#105=PLANE('',#141);
#106=FACE_OUTER_BOUND('',#142,.T.);
#107=PLANE('',#143);
#108=FACE_OUTER_BOUND('',#144,.T.);
#109=CYLINDRICAL_SURFACE('',#145,0.500000000000001);
#110=FACE_OUTER_BOUND('',#146,.T.);
#111=CYLINDRICAL_SURFACE('',#147,10.0);
#112=FACE_OUTER_BOUND('',#148,.T.);
#113=CYLINDRICAL_SURFACE('',#149,0.600000000000001);
#114=FACE_OUTER_BOUND('',#150,.T.);
#115=CYLINDRICAL_SURFACE('',#151,11.2);
#116=FACE_OUTER_BOUND('',#152,.T.);
#117=PLANE('',#153);
#118=FACE_OUTER_BOUND('',#154,.T.);
#119=CYLINDRICAL_SURFACE('',#155,28.8);
#120=FACE_OUTER_BOUND('',#156,.T.);
#121=CYLINDRICAL_SURFACE('',#157,0.6);
#122=FACE_OUTER_BOUND('',#158,.T.);
#123=CYLINDRICAL_SURFACE('',#159,30.0);
#124=FACE_OUTER_BOUND('',#160,.T.);
#125=CYLINDRICAL_SURFACE('',#161,0.600000000000001);
#126=FACE_OUTER_BOUND('',#162,.T.);
#127=PLANE('',#163);
#128=FACE_OUTER_BOUND('',#164,.T.);
#129=PLANE('',#165);
#130=EDGE_LOOP('',(#166,#167,#168,#169));
#131=AXIS2_PLACEMENT_3D('',#170,#171,#172);
#132=EDGE_LOOP('',(#173,#174,#175,#176));
#133=AXIS2_PLACEMENT_3D('',#177,#178,#179);
#134=EDGE_LOOP('',(#180,#181,#182,#183));
#135=AXIS2_PLACEMENT_3D('',#184,#185,#186);
#136=EDGE_LOOP('',(#187,#188,#189,#190));
#137=AXIS2_PLACEMENT_3D('',#191,#192,#193);
#138=EDGE_LOOP('',(#194,#195,#196,#197));
#139=AXIS2_PLACEMENT_3D('',#198,#199,#200);
#140=EDGE_LOOP('',(#201,#202,#203,#204));
#141=AXIS2_PLACEMENT_3D('',#205,#206,#207);
#142=EDGE_LOOP('',(#208,#209,#210,#211));
#143=AXIS2_PLACEMENT_3D('',#212,#213,#214);
#144=EDGE_LOOP('',(#215,#216,#217,#218));
#145=AXIS2_PLACEMENT_3D('',#219,#220,#221);
#146=EDGE_LOOP('',(#222,#223,#224,#225));
#147=AXIS2_PLACEMENT_3D('',#226,#227,#228);
#148=EDGE_LOOP('',(#229,#230,#231,#232));
#149=AXIS2_PLACEMENT_3D('',#233,#234,#235);
#150=EDGE_LOOP('',(#236,#237,#238,#239));
#151=AXIS2_PLACEMENT_3D('',#240,#241,#242);
#152=EDGE_LOOP('',(#243,#244,#245,#246));
#153=AXIS2_PLACEMENT_3D('',#247,#248,#249);
#154=EDGE_LOOP('',(#250,#251,#252,#253));
#155=AXIS2_PLACEMENT_3D('',#254,#255,#256);
#156=EDGE_LOOP('',(#257,#258,#259,#260));
#157=AXIS2_PLACEMENT_3D('',#261,#262,#263);
#158=EDGE_LOOP('',(#264,#265,#266,#267));
#159=AXIS2_PLACEMENT_3D('',#268,#269,#270);
#160=EDGE_LOOP('',(#271,#272,#273,#274));
#161=AXIS2_PLACEMENT_3D('',#275,#276,#277);
#162=EDGE_LOOP('',(#278,#279,#280,#281,#282,#283,#284,#285,#286,#287,#288,#289,#290,#291,#292,#293));
#163=AXIS2_PLACEMENT_3D('',#294,#295,#296);
#164=EDGE_LOOP('',(#297,#298,#299,#300,#301,#302,#303,#304,#305,#306,#307,#308,#309,#310,#311,#312));
#165=AXIS2_PLACEMENT_3D('',#313,#314,#315);
#166=ORIENTED_EDGE('',*,*,#316,.F.);
#167=ORIENTED_EDGE('',*,*,#317,.T.);
#168=ORIENTED_EDGE('',*,*,#318,.F.);
#169=ORIENTED_EDGE('',*,*,#319,.F.);
#170=CARTESIAN_POINT('',(4.9,1.4,50.0));
#171=DIRECTION('',(0.0,0.0,1.0));
#172=DIRECTION('',(-1.0,0.0,0.0));
#173=ORIENTED_EDGE('',*,*,#320,.F.);
#174=ORIENTED_EDGE('',*,*,#321,.T.);
#175=ORIENTED_EDGE('',*,*,#322,.F.);
#176=ORIENTED_EDGE('',*,*,#323,.F.);
#177=CARTESIAN_POINT('',(3.9,-11.4,50.0));
#178=DIRECTION('',(0.0,0.0,1.0));
#179=DIRECTION('',(-1.0,0.0,0.0));
#180=ORIENTED_EDGE('',*,*,#324,.F.);
#181=ORIENTED_EDGE('',*,*,#325,.T.);
#182=ORIENTED_EDGE('',*,*,#326,.T.);
#183=ORIENTED_EDGE('',*,*,#327,.F.);
#184=CARTESIAN_POINT('',(-0.899999999999999,0.380549392596989,50.0));
#185=DIRECTION('',(0.0,0.0,1.0));
#186=DIRECTION('',(-1.0,0.0,0.0));
#187=ORIENTED_EDGE('',*,*,#328,.F.);
#188=ORIENTED_EDGE('',*,*,#329,.T.);
#189=ORIENTED_EDGE('',*,*,#330,.T.);
#190=ORIENTED_EDGE('',*,*,#331,.F.);
#191=CARTESIAN_POINT('',(-0.299999999999999,-5.2,50.0));
#192=DIRECTION('',(0.0,0.0,1.0));
#193=DIRECTION('',(-1.0,0.0,0.0));
#194=ORIENTED_EDGE('',*,*,#332,.T.);
#195=ORIENTED_EDGE('',*,*,#333,.F.);
#196=ORIENTED_EDGE('',*,*,#334,.F.);
#197=ORIENTED_EDGE('',*,*,#327,.T.);
#198=CARTESIAN_POINT('',(7.06395024290075,-27.9202544215812,50.0));
#199=DIRECTION('',(0.0,0.0,1.0));
#200=DIRECTION('',(-1.0,0.0,0.0));
#201=ORIENTED_EDGE('',*,*,#335,.T.);
#202=ORIENTED_EDGE('',*,*,#336,.F.);
#203=ORIENTED_EDGE('',*,*,#337,.F.);
#204=ORIENTED_EDGE('',*,*,#333,.T.);
#205=CARTESIAN_POINT('',(0.0,0.0,50.0));
#206=DIRECTION('',(1.0,1.22464679914735E-16,-0.0));
#207=DIRECTION('',(-1.22464679914735E-16,1.0,0.0));
#208=ORIENTED_EDGE('',*,*,#338,.T.);
#209=ORIENTED_EDGE('',*,*,#339,.F.);
#210=ORIENTED_EDGE('',*,*,#340,.F.);
#211=ORIENTED_EDGE('',*,*,#336,.T.);
#212=CARTESIAN_POINT('',(5.75583995599256E-16,-4.7,50.0));
#213=DIRECTION('',(-2.89120579329468E-15,-1.0,0.0));
#214=DIRECTION('',(-1.0,2.89120579329468E-15,0.0));
#215=ORIENTED_EDGE('',*,*,#329,.F.);
#216=ORIENTED_EDGE('',*,*,#341,.F.);
#217=ORIENTED_EDGE('',*,*,#339,.T.);
#218=ORIENTED_EDGE('',*,*,#342,.T.);
#219=CARTESIAN_POINT('',(-0.299999999999999,-5.2,50.0));
#220=DIRECTION('',(0.0,0.0,1.0));
#221=DIRECTION('',(-1.0,0.0,0.0));
#222=ORIENTED_EDGE('',*,*,#343,.T.);
#223=ORIENTED_EDGE('',*,*,#344,.F.);
#224=ORIENTED_EDGE('',*,*,#345,.F.);
#225=ORIENTED_EDGE('',*,*,#331,.T.);
#226=CARTESIAN_POINT('',(-6.44420266963142,-13.7146211632987,50.0));
#227=DIRECTION('',(0.0,0.0,1.0));
#228=DIRECTION('',(-1.0,0.0,0.0));
#229=ORIENTED_EDGE('',*,*,#320,.T.);
#230=ORIENTED_EDGE('',*,*,#346,.F.);
#231=ORIENTED_EDGE('',*,*,#344,.T.);
#232=ORIENTED_EDGE('',*,*,#347,.T.);
#233=CARTESIAN_POINT('',(3.9,-11.4,50.0));
#234=DIRECTION('',(0.0,0.0,1.0));
#235=DIRECTION('',(-1.0,0.0,0.0));
#236=ORIENTED_EDGE('',*,*,#348,.T.);
#237=ORIENTED_EDGE('',*,*,#349,.F.);
#238=ORIENTED_EDGE('',*,*,#350,.F.);
#239=ORIENTED_EDGE('',*,*,#322,.T.);
#240=CARTESIAN_POINT('',(-6.44420266963142,-13.7146211632987,50.0));
#241=DIRECTION('',(0.0,0.0,1.0));
#242=DIRECTION('',(-1.0,0.0,0.0));
#243=ORIENTED_EDGE('',*,*,#351,.T.);
#244=ORIENTED_EDGE('',*,*,#352,.F.);
#245=ORIENTED_EDGE('',*,*,#353,.F.);
#246=ORIENTED_EDGE('',*,*,#349,.T.);
#247=CARTESIAN_POINT('',(2.0,-6.3569420948567,50.0));
#248=DIRECTION('',(-1.0,0.0,0.0));
#249=DIRECTION('',(0.0,0.0,1.0));
#250=ORIENTED_EDGE('',*,*,#354,.T.);
#251=ORIENTED_EDGE('',*,*,#355,.F.);
#252=ORIENTED_EDGE('',*,*,#356,.F.);
#253=ORIENTED_EDGE('',*,*,#352,.T.);
#254=CARTESIAN_POINT('',(7.06395024290075,-27.9202544215812,50.0));
#255=DIRECTION('',(0.0,0.0,1.0));
#256=DIRECTION('',(-1.0,0.0,0.0));
#257=ORIENTED_EDGE('',*,*,#316,.T.);
#258=ORIENTED_EDGE('',*,*,#357,.F.);
#259=ORIENTED_EDGE('',*,*,#355,.T.);
#260=ORIENTED_EDGE('',*,*,#358,.T.);
#261=CARTESIAN_POINT('',(4.9,1.4,50.0));
#262=DIRECTION('',(0.0,0.0,1.0));
#263=DIRECTION('',(-1.0,0.0,0.0));
#264=ORIENTED_EDGE('',*,*,#359,.T.);
#265=ORIENTED_EDGE('',*,*,#360,.F.);
#266=ORIENTED_EDGE('',*,*,#361,.F.);
#267=ORIENTED_EDGE('',*,*,#318,.T.);
#268=CARTESIAN_POINT('',(7.06395024290075,-27.9202544215812,50.0));
#269=DIRECTION('',(0.0,0.0,1.0));
#270=DIRECTION('',(-1.0,0.0,0.0));
#271=ORIENTED_EDGE('',*,*,#325,.F.);
#272=ORIENTED_EDGE('',*,*,#362,.F.);
#273=ORIENTED_EDGE('',*,*,#360,.T.);
#274=ORIENTED_EDGE('',*,*,#363,.T.);
#275=CARTESIAN_POINT('',(-0.899999999999999,0.380549392596989,50.0));
#276=DIRECTION('',(0.0,0.0,1.0));
#277=DIRECTION('',(-1.0,0.0,0.0));
#278=ORIENTED_EDGE('',*,*,#334,.T.);
#279=ORIENTED_EDGE('',*,*,#337,.T.);
#280=ORIENTED_EDGE('',*,*,#340,.T.);
#281=ORIENTED_EDGE('',*,*,#341,.T.);
#282=ORIENTED_EDGE('',*,*,#328,.T.);
#283=ORIENTED_EDGE('',*,*,#345,.T.);
#284=ORIENTED_EDGE('',*,*,#346,.T.);
#285=ORIENTED_EDGE('',*,*,#323,.T.);
#286=ORIENTED_EDGE('',*,*,#350,.T.);
#287=ORIENTED_EDGE('',*,*,#353,.T.);
#288=ORIENTED_EDGE('',*,*,#356,.T.);
#289=ORIENTED_EDGE('',*,*,#357,.T.);
#290=ORIENTED_EDGE('',*,*,#319,.T.);
#291=ORIENTED_EDGE('',*,*,#361,.T.);
#292=ORIENTED_EDGE('',*,*,#362,.T.);
#293=ORIENTED_EDGE('',*,*,#324,.T.);
#294=CARTESIAN_POINT('',(7.06395024290075,-27.9202544215812,50.0));
#295=DIRECTION('',(-0.0,-0.0,-1.0));
#296=DIRECTION('',(0.0,-1.0,0.0));
#297=ORIENTED_EDGE('',*,*,#332,.F.);
#298=ORIENTED_EDGE('',*,*,#326,.F.);
#299=ORIENTED_EDGE('',*,*,#363,.F.);
#300=ORIENTED_EDGE('',*,*,#359,.F.);
#301=ORIENTED_EDGE('',*,*,#317,.F.);
#302=ORIENTED_EDGE('',*,*,#358,.F.);
#303=ORIENTED_EDGE('',*,*,#354,.F.);
#304=ORIENTED_EDGE('',*,*,#351,.F.);
#305=ORIENTED_EDGE('',*,*,#348,.F.);
#306=ORIENTED_EDGE('',*,*,#321,.F.);
#307=ORIENTED_EDGE('',*,*,#347,.F.);
#308=ORIENTED_EDGE('',*,*,#343,.F.);
#309=ORIENTED_EDGE('',*,*,#330,.F.);
#310=ORIENTED_EDGE('',*,*,#342,.F.);
#311=ORIENTED_EDGE('',*,*,#338,.F.);
#312=ORIENTED_EDGE('',*,*,#335,.F.);
#313=CARTESIAN_POINT('',(7.06395024290075,-27.9202544215812,0.0));
#314=DIRECTION('',(-0.0,-0.0,-1.0));
#315=DIRECTION('',(0.0,-1.0,0.0));
#316=EDGE_CURVE('',#364,#365,#366,.T.);
#317=EDGE_CURVE('',#364,#367,#368,.T.);
#318=EDGE_CURVE('',#369,#367,#370,.T.);
#319=EDGE_CURVE('',#365,#369,#371,.T.);
#320=EDGE_CURVE('',#372,#373,#374,.T.);
#321=EDGE_CURVE('',#372,#375,#376,.T.);
#322=EDGE_CURVE('',#377,#375,#378,.T.);
#323=EDGE_CURVE('',#373,#377,#379,.T.);
#324=EDGE_CURVE('',#380,#381,#382,.T.);
#325=EDGE_CURVE('',#380,#383,#384,.T.);
#326=EDGE_CURVE('',#383,#385,#386,.T.);
#327=EDGE_CURVE('',#381,#385,#387,.T.);
#328=EDGE_CURVE('',#388,#389,#390,.T.);
#329=EDGE_CURVE('',#388,#391,#392,.T.);
#330=EDGE_CURVE('',#391,#393,#394,.T.);
#331=EDGE_CURVE('',#389,#393,#395,.T.);
#332=EDGE_CURVE('',#385,#396,#397,.T.);
#333=EDGE_CURVE('',#398,#396,#399,.T.);
#334=EDGE_CURVE('',#381,#398,#400,.T.);
#335=EDGE_CURVE('',#396,#401,#402,.T.);
#336=EDGE_CURVE('',#403,#401,#404,.T.);
#337=EDGE_CURVE('',#398,#403,#405,.T.);
#338=EDGE_CURVE('',#401,#406,#407,.T.);
#339=EDGE_CURVE('',#408,#406,#409,.T.);
#340=EDGE_CURVE('',#403,#408,#410,.T.);
#341=EDGE_CURVE('',#408,#388,#411,.T.);
#342=EDGE_CURVE('',#406,#391,#412,.T.);
#343=EDGE_CURVE('',#393,#413,#414,.T.);
#344=EDGE_CURVE('',#415,#413,#416,.T.);
#345=EDGE_CURVE('',#389,#415,#417,.T.);
#346=EDGE_CURVE('',#415,#373,#418,.T.);
#347=EDGE_CURVE('',#413,#372,#419,.T.);
#348=EDGE_CURVE('',#375,#420,#421,.T.);
#349=EDGE_CURVE('',#422,#420,#423,.T.);
#350=EDGE_CURVE('',#377,#422,#424,.T.);
#351=EDGE_CURVE('',#420,#425,#426,.T.);
#352=EDGE_CURVE('',#427,#425,#428,.T.);
#353=EDGE_CURVE('',#422,#427,#429,.T.);
#354=EDGE_CURVE('',#425,#430,#431,.T.);
#355=EDGE_CURVE('',#432,#430,#433,.T.);
#356=EDGE_CURVE('',#427,#432,#434,.T.);
#357=EDGE_CURVE('',#432,#365,#435,.T.);
#358=EDGE_CURVE('',#430,#364,#436,.T.);
#359=EDGE_CURVE('',#367,#437,#438,.T.);
#360=EDGE_CURVE('',#439,#437,#440,.T.);
#361=EDGE_CURVE('',#369,#439,#441,.T.);
#362=EDGE_CURVE('',#439,#380,#442,.T.);
#363=EDGE_CURVE('',#437,#383,#443,.T.);
#364=VERTEX_POINT('',#444);
#365=VERTEX_POINT('',#445);
#366=LINE('',#446,#447);
#367=VERTEX_POINT('',#448);
#368=CIRCLE('',#449,0.6);
#369=VERTEX_POINT('',#450);
#370=LINE('',#451,#452);
#371=CIRCLE('',#453,0.6);
#372=VERTEX_POINT('',#454);
#373=VERTEX_POINT('',#455);
#374=LINE('',#456,#457);
#375=VERTEX_POINT('',#458);
#376=CIRCLE('',#459,0.600000000000002);
#377=VERTEX_POINT('',#460);
#378=LINE('',#461,#462);
#379=CIRCLE('',#463,0.600000000000002);
#380=VERTEX_POINT('',#464);
#381=VERTEX_POINT('',#465);
#382=CIRCLE('',#466,0.600000000000001);
#383=VERTEX_POINT('',#467);
#384=LINE('',#468,#469);
#385=VERTEX_POINT('',#470);
#386=CIRCLE('',#471,0.600000000000001);
#387=LINE('',#472,#473);
#388=VERTEX_POINT('',#474);
#389=VERTEX_POINT('',#475);
#390=CIRCLE('',#476,0.500000000000001);
#391=VERTEX_POINT('',#477);
#392=LINE('',#478,#479);
#393=VERTEX_POINT('',#480);
#394=CIRCLE('',#481,0.500000000000001);
#395=LINE('',#482,#483);
#396=VERTEX_POINT('',#484);
#397=CIRCLE('',#485,28.8);
#398=VERTEX_POINT('',#486);
#399=LINE('',#487,#488);
#400=CIRCLE('',#489,28.8);
#401=VERTEX_POINT('',#490);
#402=LINE('',#491,#492);
#403=VERTEX_POINT('',#493);
#404=LINE('',#494,#495);
#405=LINE('',#496,#497);
#406=VERTEX_POINT('',#498);
#407=LINE('',#499,#500);
#408=VERTEX_POINT('',#501);
#409=LINE('',#502,#503);
#410=LINE('',#504,#505);
#411=CIRCLE('',#506,0.500000000000001);
#412=CIRCLE('',#507,0.500000000000001);
#413=VERTEX_POINT('',#508);
#414=CIRCLE('',#509,10.0);
#415=VERTEX_POINT('',#510);
#416=LINE('',#511,#512);
#417=CIRCLE('',#513,10.0);
#418=CIRCLE('',#514,0.600000000000002);
#419=CIRCLE('',#515,0.600000000000002);
#420=VERTEX_POINT('',#516);
#421=CIRCLE('',#517,11.2);
#422=VERTEX_POINT('',#518);
#423=LINE('',#519,#520);
#424=CIRCLE('',#521,11.2);
#425=VERTEX_POINT('',#522);
#426=LINE('',#523,#524);
#427=VERTEX_POINT('',#525);
#428=LINE('',#526,#527);
#429=LINE('',#528,#529);
#430=VERTEX_POINT('',#530);
#431=CIRCLE('',#531,28.8);
#432=VERTEX_POINT('',#532);
#433=LINE('',#533,#534);
#434=CIRCLE('',#535,28.8);
#435=CIRCLE('',#536,0.6);
#436=CIRCLE('',#537,0.6);
#437=VERTEX_POINT('',#538);
#438=CIRCLE('',#539,30.0);
#439=VERTEX_POINT('',#540);
#440=LINE('',#541,#542);
#441=CIRCLE('',#543,30.0);
#442=CIRCLE('',#544,0.600000000000001);
#443=CIRCLE('',#545,0.600000000000001);
#444=CARTESIAN_POINT('',(5.5,1.4,0.0));
#445=CARTESIAN_POINT('',(5.5,1.4,50.0));
#446=CARTESIAN_POINT('',(5.5,1.4,50.0));
#447=VECTOR('',#546,1.0);
#448=CARTESIAN_POINT('',(4.85583775014488,1.99837253921594,0.0));
#449=AXIS2_PLACEMENT_3D('',#547,#548,#549);
#450=CARTESIAN_POINT('',(4.85583775014488,1.99837253921594,50.0));
#451=CARTESIAN_POINT('',(4.85583775014488,1.99837253921594,50.0));
#452=VECTOR('',#550,1000.0);
#453=AXIS2_PLACEMENT_3D('',#551,#552,#553);
#454=CARTESIAN_POINT('',(4.5,-11.4,0.0));
#455=CARTESIAN_POINT('',(4.5,-11.4,50.0));
#456=CARTESIAN_POINT('',(4.5,-11.4,50.0));
#457=VECTOR('',#554,1.0);
#458=CARTESIAN_POINT('',(4.48552090582819,-11.2689837077378,0.0));
#459=AXIS2_PLACEMENT_3D('',#555,#556,#557);
#460=CARTESIAN_POINT('',(4.48552090582819,-11.2689837077378,50.0));
#461=CARTESIAN_POINT('',(4.48552090582819,-11.2689837077378,50.0));
#462=VECTOR('',#558,1000.0);
#463=AXIS2_PLACEMENT_3D('',#559,#560,#561);
#464=CARTESIAN_POINT('',(-1.5,0.380549392596989,50.0));
#465=CARTESIAN_POINT('',(-0.737470403206106,-0.197018032182157,50.0));
#466=AXIS2_PLACEMENT_3D('',#562,#563,#564);
#467=CARTESIAN_POINT('',(-1.5,0.380549392596989,0.0));
#468=CARTESIAN_POINT('',(-1.5,0.380549392596989,50.0));
#469=VECTOR('',#565,1000.0);
#470=CARTESIAN_POINT('',(-0.737470403206106,-0.197018032182157,0.0));
#471=AXIS2_PLACEMENT_3D('',#566,#567,#568);
#472=CARTESIAN_POINT('',(-0.737470403206106,-0.197018032182157,50.0));
#473=VECTOR('',#569,1000.0);
#474=CARTESIAN_POINT('',(-0.8,-5.2,50.0));
#475=CARTESIAN_POINT('',(-0.592581079506258,-5.60545815063327,50.0));
#476=AXIS2_PLACEMENT_3D('',#570,#571,#572);
#477=CARTESIAN_POINT('',(-0.8,-5.2,0.0));
#478=CARTESIAN_POINT('',(-0.8,-5.2,50.0));
#479=VECTOR('',#573,1000.0);
#480=CARTESIAN_POINT('',(-0.592581079506258,-5.60545815063327,0.0));
#481=AXIS2_PLACEMENT_3D('',#574,#575,#576);
#482=CARTESIAN_POINT('',(-0.592581079506258,-5.60545815063327,50.0));
#483=VECTOR('',#577,1000.0);
#484=CARTESIAN_POINT('',(0.0,0.0,0.0));
#485=AXIS2_PLACEMENT_3D('',#578,#579,#580);
#486=CARTESIAN_POINT('',(0.0,0.0,50.0));
#487=CARTESIAN_POINT('',(0.0,0.0,50.0));
#488=VECTOR('',#581,1000.0);
#489=AXIS2_PLACEMENT_3D('',#582,#583,#584);
#490=CARTESIAN_POINT('',(5.75583995599256E-16,-4.7,0.0));
#491=CARTESIAN_POINT('',(0.0,0.0,0.0));
#492=VECTOR('',#585,1000.0);
#493=CARTESIAN_POINT('',(5.75583995599256E-16,-4.7,50.0));
#494=CARTESIAN_POINT('',(5.75583995599256E-16,-4.7,50.0));
#495=VECTOR('',#586,1000.0);
#496=CARTESIAN_POINT('',(0.0,0.0,50.0));
#497=VECTOR('',#587,1000.0);
#498=CARTESIAN_POINT('',(-0.299999999999999,-4.7,0.0));
#499=CARTESIAN_POINT('',(5.75583995599256E-16,-4.7,0.0));
#500=VECTOR('',#588,1000.0);
#501=CARTESIAN_POINT('',(-0.299999999999999,-4.7,50.0));
#502=CARTESIAN_POINT('',(-0.299999999999999,-4.7,50.0));
#503=VECTOR('',#589,1000.0);
#504=CARTESIAN_POINT('',(5.75583995599256E-16,-4.7,50.0));
#505=VECTOR('',#590,1000.0);
#506=AXIS2_PLACEMENT_3D('',#591,#592,#593);
#507=AXIS2_PLACEMENT_3D('',#594,#595,#596);
#508=CARTESIAN_POINT('',(3.31447909417181,-11.5310162922622,0.0));
#509=AXIS2_PLACEMENT_3D('',#597,#598,#599);
#510=CARTESIAN_POINT('',(3.31447909417181,-11.5310162922622,50.0));
#511=CARTESIAN_POINT('',(3.31447909417181,-11.5310162922622,50.0));
#512=VECTOR('',#600,1000.0);
#513=AXIS2_PLACEMENT_3D('',#601,#602,#603);
#514=AXIS2_PLACEMENT_3D('',#604,#605,#606);
#515=AXIS2_PLACEMENT_3D('',#607,#608,#609);
#516=CARTESIAN_POINT('',(2.0,-6.35694209485669,0.0));
#517=AXIS2_PLACEMENT_3D('',#610,#611,#612);
#518=CARTESIAN_POINT('',(2.0,-6.35694209485669,50.0));
#519=CARTESIAN_POINT('',(2.0,-6.35694209485669,50.0));
#520=VECTOR('',#613,1000.0);
#521=AXIS2_PLACEMENT_3D('',#614,#615,#616);
#522=CARTESIAN_POINT('',(2.0,0.431049039413801,0.0));
#523=CARTESIAN_POINT('',(2.0,-6.3569420948567,0.0));
#524=VECTOR('',#617,1000.0);
#525=CARTESIAN_POINT('',(2.0,0.431049039413801,50.0));
#526=CARTESIAN_POINT('',(2.0,0.431049039413801,50.0));
#527=VECTOR('',#618,1000.0);
#528=CARTESIAN_POINT('',(2.0,-6.3569420948567,50.0));
#529=VECTOR('',#619,1000.0);
#530=CARTESIAN_POINT('',(4.94416224985512,0.801627460784052,0.0));
#531=AXIS2_PLACEMENT_3D('',#620,#621,#622);
#532=CARTESIAN_POINT('',(4.94416224985512,0.801627460784052,50.0));
#533=CARTESIAN_POINT('',(4.94416224985512,0.801627460784052,50.0));
#534=VECTOR('',#623,1000.0);
#535=AXIS2_PLACEMENT_3D('',#624,#625,#626);
#536=AXIS2_PLACEMENT_3D('',#627,#628,#629);
#537=AXIS2_PLACEMENT_3D('',#630,#631,#632);
#538=CARTESIAN_POINT('',(-1.06252959679389,0.958116817376137,0.0));
#539=AXIS2_PLACEMENT_3D('',#633,#634,#635);
#540=CARTESIAN_POINT('',(-1.06252959679389,0.958116817376137,50.0));
#541=CARTESIAN_POINT('',(-1.06252959679389,0.958116817376137,50.0));
#542=VECTOR('',#636,1000.0);
#543=AXIS2_PLACEMENT_3D('',#637,#638,#639);
#544=AXIS2_PLACEMENT_3D('',#640,#641,#642);
#545=AXIS2_PLACEMENT_3D('',#643,#644,#645);
#546=DIRECTION('',(0.0,0.0,1.0));
#547=CARTESIAN_POINT('',(4.9,1.4,0.0));
#548=DIRECTION('',(0.0,0.0,1.0));
#549=DIRECTION('',(1.0,0.0,0.0));
#550=DIRECTION('',(-0.0,-0.0,-1.0));
#551=CARTESIAN_POINT('',(4.9,1.4,50.0));
#552=DIRECTION('',(0.0,0.0,1.0));
#553=DIRECTION('',(1.0,0.0,0.0));
#554=DIRECTION('',(0.0,0.0,1.0));
#555=CARTESIAN_POINT('',(3.9,-11.4,0.0));
#556=DIRECTION('',(0.0,0.0,1.0));
#557=DIRECTION('',(1.0,0.0,0.0));
#558=DIRECTION('',(-0.0,-0.0,-1.0));
#559=CARTESIAN_POINT('',(3.9,-11.4,50.0));
#560=DIRECTION('',(0.0,0.0,1.0));
#561=DIRECTION('',(1.0,0.0,0.0));
#562=CARTESIAN_POINT('',(-0.899999999999999,0.380549392596989,50.0));
#563=DIRECTION('',(0.0,0.0,1.0));
#564=DIRECTION('',(1.0,0.0,0.0));
#565=DIRECTION('',(-0.0,-0.0,-1.0));
#566=CARTESIAN_POINT('',(-0.899999999999999,0.380549392596989,0.0));
#567=DIRECTION('',(0.0,0.0,1.0));
#568=DIRECTION('',(1.0,0.0,0.0));
#569=DIRECTION('',(-0.0,-0.0,-1.0));
#570=CARTESIAN_POINT('',(-0.299999999999999,-5.2,50.0));
#571=DIRECTION('',(0.0,0.0,1.0));
#572=DIRECTION('',(1.0,0.0,0.0));
#573=DIRECTION('',(-0.0,-0.0,-1.0));
#574=CARTESIAN_POINT('',(-0.299999999999999,-5.2,0.0));
#575=DIRECTION('',(0.0,0.0,1.0));
#576=DIRECTION('',(1.0,0.0,0.0));
#577=DIRECTION('',(-0.0,-0.0,-1.0));
#578=CARTESIAN_POINT('',(7.06395024290075,-27.9202544215812,0.0));
#579=DIRECTION('',(0.0,0.0,-1.0));
#580=DIRECTION('',(-1.0,0.0,0.0));
#581=DIRECTION('',(-0.0,-0.0,-1.0));
#582=CARTESIAN_POINT('',(7.06395024290075,-27.9202544215812,50.0));
#583=DIRECTION('',(0.0,0.0,-1.0));
#584=DIRECTION('',(-1.0,0.0,0.0));
#585=DIRECTION('',(1.22464679914735E-16,-1.0,0.0));
#586=DIRECTION('',(-0.0,-0.0,-1.0));
#587=DIRECTION('',(1.22464679914735E-16,-1.0,0.0));
#588=DIRECTION('',(-1.0,2.89120579329468E-15,0.0));
#589=DIRECTION('',(-0.0,-0.0,-1.0));
#590=DIRECTION('',(-1.0,2.89120579329468E-15,0.0));
#591=CARTESIAN_POINT('',(-0.299999999999999,-5.2,50.0));
#592=DIRECTION('',(0.0,0.0,1.0));
#593=DIRECTION('',(1.0,0.0,0.0));
#594=CARTESIAN_POINT('',(-0.299999999999999,-5.2,0.0));
#595=DIRECTION('',(0.0,0.0,1.0));
#596=DIRECTION('',(1.0,0.0,0.0));
#597=CARTESIAN_POINT('',(-6.44420266963142,-13.7146211632987,0.0));
#598=DIRECTION('',(0.0,0.0,-1.0));
#599=DIRECTION('',(-1.0,0.0,0.0));
#600=DIRECTION('',(-0.0,-0.0,-1.0));
#601=CARTESIAN_POINT('',(-6.44420266963142,-13.7146211632987,50.0));
#602=DIRECTION('',(0.0,0.0,-1.0));
#603=DIRECTION('',(-1.0,0.0,0.0));
#604=CARTESIAN_POINT('',(3.9,-11.4,50.0));
#605=DIRECTION('',(0.0,0.0,1.0));
#606=DIRECTION('',(1.0,0.0,0.0));
#607=CARTESIAN_POINT('',(3.9,-11.4,0.0));
#608=DIRECTION('',(0.0,0.0,1.0));
#609=DIRECTION('',(1.0,0.0,0.0));
#610=CARTESIAN_POINT('',(-6.44420266963142,-13.7146211632987,0.0));
#611=DIRECTION('',(0.0,0.0,1.0));
#612=DIRECTION('',(1.0,0.0,0.0));
#613=DIRECTION('',(-0.0,-0.0,-1.0));
#614=CARTESIAN_POINT('',(-6.44420266963142,-13.7146211632987,50.0));
#615=DIRECTION('',(0.0,0.0,1.0));
#616=DIRECTION('',(1.0,0.0,0.0));
#617=DIRECTION('',(0.0,1.0,0.0));
#618=DIRECTION('',(-0.0,-0.0,-1.0));
#619=DIRECTION('',(0.0,1.0,0.0));
#620=CARTESIAN_POINT('',(7.06395024290075,-27.9202544215812,0.0));
#621=DIRECTION('',(0.0,0.0,-1.0));
#622=DIRECTION('',(-1.0,0.0,0.0));
#623=DIRECTION('',(-0.0,-0.0,-1.0));
#624=CARTESIAN_POINT('',(7.06395024290075,-27.9202544215812,50.0));
#625=DIRECTION('',(0.0,0.0,-1.0));
#626=DIRECTION('',(-1.0,0.0,0.0));
#627=CARTESIAN_POINT('',(4.9,1.4,50.0));
#628=DIRECTION('',(0.0,0.0,1.0));
#629=DIRECTION('',(1.0,0.0,0.0));
#630=CARTESIAN_POINT('',(4.9,1.4,0.0));
#631=DIRECTION('',(0.0,0.0,1.0));
#632=DIRECTION('',(1.0,0.0,0.0));
#633=CARTESIAN_POINT('',(7.06395024290075,-27.9202544215812,0.0));
#634=DIRECTION('',(0.0,0.0,1.0));
#635=DIRECTION('',(1.0,0.0,0.0));
#636=DIRECTION('',(-0.0,-0.0,-1.0));
#637=CARTESIAN_POINT('',(7.06395024290075,-27.9202544215812,50.0));
#638=DIRECTION('',(0.0,0.0,1.0));
#639=DIRECTION('',(1.0,0.0,0.0));
#640=CARTESIAN_POINT('',(-0.899999999999999,0.380549392596989,50.0));
#641=DIRECTION('',(0.0,0.0,1.0));
#642=DIRECTION('',(1.0,0.0,0.0));
#643=CARTESIAN_POINT('',(-0.899999999999999,0.380549392596989,0.0));
#644=DIRECTION('',(0.0,0.0,1.0));
#645=DIRECTION('',(1.0,0.0,0.0));
ENDSEC;
END-ISO-10303-21;
